Song name
# A B C D E F G H I J K L M N O P Q R S T U V W X Y Z

Misc - Albert Eberg tab

English:
Heh, old swedish song from Childrens TV. Pretty cool.


Norwegian/Swedish:
Husker du Albert Åberg på Barne-TV? Her er sangen i tab!

Any suggestions, comments or anything else mail me: bakkeprosjektil@dhmail.net

Tuning: Standard E-A-D-G-B-e

e|-----------------------------------|----------------------------------------|
B|-----------------------------------|----------------------------------------|
G|-12--15--15--12--12----------------|---12--15--15--12--12-------------------|
D|----------------------15--15--13---|-----------------------15-13------------|
A|-----------------------------------|----------------------------------------|
E|-----------------------------------|----------------------------------------|

e|-----------------------------------|----------------------------------------|
B|--13---16--15-12-13--16--15-12-13--|----------------------------------------|
G|-----------------------------------|--13---16--15-12-13--16--15-12-13-------|
D|-----------------------------------|----------------------------------------|
A|-----------------------------------|----------------------------------------|
E|-----------------------------------|----------------------------------------|

e|---------------------------------------------------------------------------|
B|---------------------------------------------------------------------------|
G|---------------------------------------------------------------------------|
D|-13---16--15-12-13--16--15-12-10~~-----------------------------------------|
A|---------------------------------------------------------------------------|
E|---------------------------------------------------------------------------|
Tap to rate this tab
# A B C D E F G H I J K L M N O P Q R S T U V W X Y Z