Song name
# A B C D E F G H I J K L M N O P Q R S T U V W X Y Z

Misc - Discombobulate tab

|-7-------7-----6-7-------------------------------------8-|
|---------------------------------------------------------|
|---------------------------------------------------------|
|---------------------------------------------------------|
|---------------------------------------------------------|
|---------------------------------------------------------| 


|-9-------9-------9~--------------------------------------------10-|
|---------------8--------------------------------------------------|
|------------------------------------------------------------------|
|------------------------------------------------------------------|
|------------------------------------------------------------------|
|------------------------------------------------------------------|


|-7-------7-----6-7~-----------------------------------------------|
|------------------------------------------------------------------|
|------------------------------------------------------------------|
|------------------------------------------------------------------|
|------------------------------------------------------------------|
|------------------------------------------------------------------|

|-7---7-6-7---7-8-9---9---9---9-10-7---7-6-7---7---7~--------------|
|-----------------------8------------------------8-----------------|
|------------------------------------------------------------------|
|------------------------------------------------------------------|
|------------------------------------------------------------------|
|------------------------------------------------------------------|


|-7---7-6-7---7-8-9---9---9---9-10-7---7-6-7---7-10-7~-------------|
|-----------------------8------------------------------------------|
|------------------------------------------------------------------|
|------------------------------------------------------------------|
|------------------------------------------------------------------|
|------------------------------------------------------------------|


|-6h7---7---6h7---7---6p5---5---4h5---5---6h7---7---6h7---7---6p5~------|
|-----------------------------------------------------------------------|
|-----------------------------------------------------------------------|
|-----------------------------------------------------------------------|
|-----------------------------------------------------------------------|
|-----------------------------------------------------------------------|


|-6h7---7---6h7---7---6p5---5---4h5---5---5h3---3---2h3---3---2p0~------|
|-----------------------------------------------------------------------|
|-----------------------------------------------------------------------|
|-----------------------------------------------------------------------|
|-----------------------------------------------------------------------|
|-----------------------------------------------------------------------|
Tap to rate this tab
# A B C D E F G H I J K L M N O P Q R S T U V W X Y Z