Song name
# A B C D E F G H I J K L M N O P Q R S T U V W X Y Z

Misc - America The Beautiful tab

"America the Beautiful"
Tab by Johnny Strings

Play with heavy distortion and gobs of chorus, reverb, delay and finger vibrato!

   !  .  !  .  !  .  !  .    !  .  !  .  !  .  !  .  
e|-------------------------|-------------------------|
B|-------------------------|-------------------------|
G|-------------------------|-------------------------|
D|-5-----5-----------------|-5-----5-----------------|
A|----------------7--7-----|----------------5--5-----|
E|-------------------------|-------------------------|

   !  .  !  .  !  .  !  .    !  .  !  .  !  .  !  .  
e|-------------------------|-------------------------|
B|-------------------------|-------------------------|
G|-------------------------|-------------------------|
D|-2-----4-----5-----7-----|-------5-----------------|
A|-------------------------|-5-----------------------|
E|-------------------------|-------------------------|

   !  .  !  .  !  .  !  .    !  .  !  .  !  .  !  .  
e|-------------------------|-------------------------|
B|-------------------------|-------------------------|
G|-------------------------|-------------------------|
D|-5-----5-----------------|-5-----5-----------------|
A|----------------7--7-----|----------------5--5-----|
E|-------------------------|-------------------------|

   !  .  !  .  !  .  !  .    !  .  !  .  !  .  !  .  
e|-------------------------|-------------------------|
B|-------------------------|-------------------------|
G|-7-----6-----7-----9-----|-------7-----------------|
D|-------------------------|-7-----------------------|
A|-------------------------|-------------------------|
E|-------------------------|-------------------------|

   !  .  !  .  !  .  !  .    !  .  !  .  !  .  !  .  
e|-------------------------|-------------------------|
B|-------------------------|-------------------------|
G|-------9--------9--7-----|-5-----5--------4--4-----|
D|-5-----------------------|-------------------------|
A|-------------------------|-------------------------|
E|-------------------------|-------------------------|

   !  .  !  .  !  .  !  .    !  .  !  .  !  .  !  .  
e|-------------------------|-------------------------|
B|-------------------------|-------------------------|
G|-5----/7----\4----\2-----|p0----h5-----------------|
D|-------------------------|-------------------------|
A|-------------------------|-------------------------|
E|-------------------------|-------------------------|

   !  .  !  .  !  .  !  .    !  .  !  .  !  .  !  .  
e|-------------------------|-------------------------|
B|-------------------------|-------------------------|
G|-5-----5-----------------|-5-----5-----------------|
D|----------------7--7-----|----------------5--5-----|
A|-------------------------|-------------------------|
E|-------------------------|-------------------------|

   !  .  !  .  !  .  !  .    !  .  !  .  !  .  !  .  
e|-------------------------|-------------------------|
B|-------------------------|-------------------------|
G|-------------5-----------|-7-----5-----------------|
D|-5-----7-----------5-----|-------------------------|
A|-------------------------|-------------------------|
E|-------------------------|-------------------------|

(the rest is just repeating an octave up...)

   !  .  !  .  !  .  !  .    !  .  !  .  !  .  !  .  
e|-------------------------|-------------------------|
B|-8-----8-----------------|-8-----8-----------------|
G|----------------9--9-----|----------------7--7-----|
D|-------------------------|-------------------------|
A|-------------------------|-------------------------|
E|-------------------------|-------------------------|

   !  .  !  .  !  .  !  .    !  .  !  .  !  .  !  .  
e|-------------------------|-------------------------|
B|-5-----7-----8-----10----|-------8-----------------|
G|-------------------------|-7-----------------------|
D|-------------------------|-------------------------|
A|-------------------------|-------------------------|
E|-------------------------|-------------------------|

   !  .  !  .  !  .  !  .    !  .  !  .  !  .  !  .  
e|-------------------------|-------------------------|
B|-8-----8-----------------|-8-----8-----------------|
G|----------------9--9-----|----------------7--7-----|
D|-------------------------|-------------------------|
A|-------------------------|-------------------------|
E|-------------------------|-------------------------|

   !  .  !  .  !  .  !  .    !  .  !  .  !  .  !  .  
e|-------------------------|-------------------------|
B|-15----14----15----17----|-------15----------------|
G|-------------------------|-14----------------------|
D|-------------------------|-------------------------|
A|-------------------------|-------------------------|
E|-------------------------|-------------------------|

   !  .  !  .  !  .  !  .    !  .  !  .  !  .  !  .  
e|-------------------------|-------------------------|
B|-------17-------17-15----|-13----13-------12-12----|
G|-13----------------------|-------------------------|
D|-------------------------|-------------------------|
A|-------------------------|-------------------------|
E|-------------------------|-------------------------|

   !  .  !  .  !  .  !  .    !  .  !  .  !  .  !  .  
e|-------------------------|-------------------------|
B|-13----15----12----10----|-8-----13----------------|
G|-------------------------|-------------------------|
D|-------------------------|-------------------------|
A|-------------------------|-------------------------|
E|-------------------------|-------------------------|

   !  .  !  .  !  .  !  .    !  .  !  .  !  .  !  .  
e|-------------------------|-------------------------|
B|-13----13----------------|-13----13----------------|
G|----------------14-14----|----------------12-12----|
D|-------------------------|-------------------------|
A|-------------------------|-------------------------|
E|-------------------------|-------------------------|

   !  .  !  .  !  .  !  .    !  .  !  .  !  .  !  .  
e|-------------------------|-------------------------|
B|-------------13----------|-15----------13----------|
G|-12----14----------12----|-------------12----------|
D|-------------------------|-------------10----------|
A|-------------------------|-------------------------|
E|-------------------------|-------------------------|
Tap to rate this tab
# A B C D E F G H I J K L M N O P Q R S T U V W X Y Z