Song name
# A B C D E F G H I J K L M N O P Q R S T U V W X Y Z

Misc - Misc Metal Riff tab

-------------------------------------------------------------------------------
                             Misc. Metal Riff
-------------------------------------------------------------------------------
Tabbed by: Andrew

Email: Andrew26nol@gmail.com

Tuning: Drop C

Just some random metal riff I started playing. Sounded pretty cool.
It would be sick as hell if you guys out there want to just add on or somthing and as a 
metal guitarist we
create a collab of just a bunch of sweet tabs we put together, so if you got anything to 
add that you can come
up with email it to me and then post it on UG.

d|---------------------------------------------------------------------------|
A|---------------------------------------------------------------------------|
F|---------------------------------------------------------------------------|
C|---------------------------------------------------------------------------|
G|--8-7--10-8-(7)7h8p7---8-7--10-8-(7)7h8p7----------------------------------|
C|00-0-00--0-0---------00-0-00--0-0------------------------------------------|
  ** * **  * * *       ** * **  * * *
d|---------------------------------------------------------------------------|
A|---------------------------------------------------------------------------|
F|---------------------------------------------------------------------------|
C|-------------------------------------7h10p7--------------------------------|
G|--10-7--8-7-(7)7h8p7-----10--10------------7h10p7--------------------------|
C|88--8-88-8-8---------1010--10--101077--------------------------------------|
  **  * ** * * *       * *   *   * * **

***Those are 10's, not 1's and 0's***

************************************

| /   slide up
| \   slide down
| h   hammer-on
| p   pull-off
| ~   vibrato
| *   Palm Mute
|(n)  Optional Note

************************************
Tap to rate this tab
 
# A B C D E F G H I J K L M N O P Q R S T U V W X Y Z