Song name
# A B C D E F G H I J K L M N O P Q R S T U V W X Y Z

Misc - Round The Horne tab

Round the Horne was a comedy programme, broadcast by BBC Radio from 1965. This 
song was played at the end of the programme.

Capo Fret 2

E|-------------------|-------------------|
B|-------------------|-------------------|
G|-----0---0---------|-----0---0---------|
D|-0-3-------3-0---0-|-0-3-------3-0-----|
A|---------------3---|---------------3---|
E|-------------------|-------------------|

E|-------------------|-------------------|
B|-------------------|-------------------|
G|-----0---3-2-0-----|-2-0-------------0-|
D|-0-3-----------1---|----3-0---0--0-3---|
A|-------------------|-------------------|
E|-------------------|-------------------|
Tap to rate this tab
# A B C D E F G H I J K L M N O P Q R S T U V W X Y Z