Song name
# A B C D E F G H I J K L M N O P Q R S T U V W X Y Z

Misc - Guitar Chords Major And Minor chords

Highlighted       Show chord diagrams
------------------------------------------------------------------------
                                         MAJOR CHORDS
------------------------------------------------------------------------

    A       B       C       D       E       F        G
   
e|--------------------------2------------------------3---|
B|--2-------4-------1-------3---------------1--------3---|
G|--2-------4-------0-------2-------1-------2--------0---|
D|--2-------4-------2---------------2-------3--------0---|
A|--0-------2-------3---------------2-------3--------2---|
E|----------------------------------0----------------3---|

------------------------------------------------------------------------
                                         MINOR CHORDS
------------------------------------------------------------------------


   Am       Bm     Cm      Dm      Em      Fm        Gm
   
e|--------------------------1------------------------------------|
B|--1-------3-------4-------3------------------------------------|
G|--2-------4-------5-------2-------0-------1---------3----------|
D|--2-------4-------5---------------2-------3---------5----------|
A|--0-------2-------3---------------2-------3---------5----------|
E|----------------------------------0-------1---------3----------|


************************************

A number represents what fret.
Open represents open string. 

************************************
Tap to rate this tab
# A B C D E F G H I J K L M N O P Q R S T U V W X Y Z