Song name
# A B C D E F G H I J K L M N O P Q R S T U V W X Y Z

Misc - God Of Nations tab

Themes - God Of Nations Nz National Anthem
Submitted By: rap_boy
EMail: jason_wassup@hotmail.com


|       |       |       |        |       |       |       |        
|--------------------------------|--------------------------------|
|10------8-------7-------8-------|7-------5-------3---------------|
|--------------------------------|--------------------------------|
|--------------------------------|--------------------------------|
|--------------------------------|--------------------------------|
|--------------------------------|--------------------------------|


 |       |       |       |        |       |       |       |        
|3-------2-------3---------------|7-------7-----5-3---------------|
|------------------------3-------|--------------------------------|
|--------------------------------|--------------------------------|
|--------------------------------|--------------------------------|
|--------------------------------|--------------------------------|
|--------------------------------|--------------------------------|

 |       |       |       |        |       |       |       |        
|0-------8---------------7-------|5---3---2---0-------------------|
|----------------3---------------|----------------3---------------|
|--------------------------------|--------------------------------|
|--------------------------------|--------------------------------|
|--------------------------------|--------------------------------|
|--------------------------------|--------------------------------|

 |       |       |       |        |       |       |       |        
|3---------------0-------2-------|3-------5-------7---------------|
|--------3-----------------------|--------------------------------|
|--------------------------------|--------------------------------|
|--------------------------------|--------------------------------|
|--------------------------------|--------------------------------|
|--------------------------------|--------------------------------|

 |       |       |       |        |       |       |       |        
|7-------3-------0-------5-------|3-------2-------3---------------|
|--------------------------------|--------------------------------|
|--------------------------------|--------------------------------|
|--------------------------------|--------------------------------|
|--------------------------------|--------------------------------|
|--------------------------------|--------------------------------|

 |       |       |       |        |       |       |       |        
|10------10------3-------7-------|10------10--12--10--------------|
|--------------------------------|--------------------------------|
|--------------------------------|--------------------------------|
|--------------------------------|--------------------------------|
|--------------------------------|--------------------------------|
|--------------------------------|--------------------------------|

 |       |       |       |        |       |       |       |        
|5-------7-------8---7---5---3---|2---3---2---0-------------------|
|--------------------------------|----------------3---------------|
|--------------------------------|--------------------------------|
|--------------------------------|--------------------------------|
|--------------------------------|--------------------------------|
|--------------------------------|--------------------------------|

 |       |       |       |        |       |       |       |        
|3---------------0-------2-------|3-------5-------10--------------|
|--------3-----------------------|--------------------------------|
|--------------------------------|--------------------------------|
|--------------------------------|--------------------------------|
|--------------------------------|--------------------------------|
|--------------------------------|--------------------------------|

 |       |       |       |        |       |       |       |        
|10------8-------7-------8-------|7-------5-------3---------------|
|--------------------------------|--------------------------------|
|--------------------------------|--------------------------------|
|--------------------------------|--------------------------------|
|--------------------------------|--------------------------------|
|--------------------------------|--------------------------------|
Tap to rate this tab
 
# A B C D E F G H I J K L M N O P Q R S T U V W X Y Z