Song name
# A B C D E F G H I J K L M N O P Q R S T U V W X Y Z

Misc - Chinese Riff Punk Style tab

Chinese Riff Punk Style
tabbed by: extrememan
created a few seconds ago


--------------------------------------------
--------------------------------------------
-3333-55-22-5-------------------------------
-3333-55-22-5-------------------------------
-5555-33-00-3-------------------------------
--------------------------------------------

or

----------------------------------------------
----------------------------------------------
-3333-55----5---------------------------------
-3333-55-33-5---------------------------------
-5555-33-33-3---------------------------------
---------55-----------------------------------


and here is a bonus riff cause i dont know what to name it as

-12-------------11-12-----------------------
----11-12-13-12-----------------------------
--------------------------------------------
--------------------------------------------
--------------------------------------------
--------------------------------------------

credit for the bonus riff goes to lonnie his website is www.fishbowlband.com
Tap to rate this tab
# A B C D E F G H I J K L M N O P Q R S T U V W X Y Z