Song name
# A B C D E F G H I J K L M N O P Q R S T U V W X Y Z

Misc - Spannish Riff tab

----------------------------------------------------------------------------
			     Spannish Riff - Misc
----------------------------------------------------------------------------
Tabbed by:togdor
Email:sainiac@hotmail.com

Tuning:eBGDAE
e|--0--0--0--0--0--000--0--0--0--0--0--001--1--1--1--1--113--3--1--0--|
A|--2--2--2--2--2--222--2--2--2--2--2--223--3--3--3--3--335--5--3--2--|
D|--2--2--2--2--2--222--2--2--2--2--2--223--3--3--3--3--335--5--3--2--|
G|--1--1--1--1--1--111--1--1--1--1--1--112--2--2--2--2--224--4--2--1--|
B|--0--0--0--0--0--000--0--0--0--0--0--001--1--1--1--1--113--3--1--0--|
E|--0--0--0--0--0--000--0--0--0--0--0--001--1--1--1--1--113--3--1--0--|



this is my first tab so be nice to me in your ratings i learnt it from my dad it sounds pretty cool
Tap to rate this tab
 
# A B C D E F G H I J K L M N O P Q R S T U V W X Y Z