Song name
# A B C D E F G H I J K L M N O P Q R S T U V W X Y Z

Misc - Simpsons Theme Song tab

there are 2 ways you can play this song.
--0-2-5-3-0-----------------------------------------
1-----------1------------------0-0-0-1--------------
--------------2------0-------0----------------------
----------------4-4-4--4-4-4------------------------
----------------------------------------------------
----------------------------------------------------
or you can play it this way

----------------------------------------------------
----------------------------------------------------
--------2-0-----------------------------------------
----2-3-----2-0-------------------------------------
--3-------------0-000-1-000-1-3-000-1-000-1-3-5555--
----------------------------------------------------
that is it.
Tap to rate this tab
 
# A B C D E F G H I J K L M N O P Q R S T U V W X Y Z