Guitaretab - guitar tabs
Song name
# A B C D E F G H I J K L M N O P Q R S T U V W X Y Z

Misc - Cool Little Song tab

-------------------------------------------------------------------------------
			     Cool little song
-------------------------------------------------------------------------------
Tabbed by: Boozer
Email: theboozinator@hotmail.com

Tuning: Standard

This is just a little song that my band came up with, we are still in the 
process of finishing it up...hope you enjoy it

Intro-
e|---------------------------------------------------------------------------|
B|---------------------------------------------------------------------------|
G|---------------------------------------------------------------------------|
D|-7-0-7-0-7-0--5-0-5-0-5-0--3-0-3-0-3-0-3-0-3------------------------------|x2
A|-9-0-9-0-9-0--7-0-7-0-7-0--5-0-5-0-5-0-5-0-5------------------------------|
E|---------------------------------------------------------------------------|
[ Tab from: http://www.guitaretab.com/m/misc/49813.html ]
Repeat As Many Times As You Want (4 chords together are played with down/up strokes)
e|---------------------------------------------------------------------------|
B|---------------------------------------------------------------------------|
G|---------------------------------------------------------------------------|
D|-9--9---9-9-9-9----7--7---7777----5--5---5555----5--5--55------------------|
A|-9--9---9-9-9-9----7--7---7777----5--5---5555----5--5--55------------------|
E|-11-11--11111111---9--9---9999----7--7---7777----3--3--33------------------|

Solo-
e|-------5-------------------------------------------------------------------|
B|----------8--5-------------------------------------------------------------|
G|---7b-----------7-5-7-5---7-5----------------------------------------------|
D|------------------------8------7-5-7-5\9----17-17-17-1715h1715h1715h17--|
A|---------------------------------------------------------------------------|
E|---------------------------------------------------------------------------|

e|---------------------------------------------------------------------------|
B|---------------------------------------------------------------------------|
G|---------------------------------------------------------------------------|
D|---13h15-13h15-13h15--12-12-12--9-9-9-7-7-7-5-5-5-5h7-5h7\9b---------------|
A|---------------------------------------------------------------------------|
E|---------------------------------------------------------------------------|

| /  slide up
| \  slide down
| h  hammer-on
| p  pull-off
| ~  vibrato
| +  harmonic
| x  Mute note
| b  bend
===============================================================================
Related for Cool Little Song tab