Song name
# A B C D E F G H I J K L M N O P Q R S T U V W X Y Z

Misc - Boogie Woogie tab

Tuning: standard eBGDAE

Very easy to play, sounds good fast or slow, it has a Country-Bluesy "twang" to it, I 
it fun to play.  It helps with speed, I play it to warm-up.  Makes beginners sound like 
(repeat)
-Josef (HalfBakedJM)

e|-----------------------------------------------------------------------------------------------|
b|-----------------------------------------------------------------------------------------------|
g|----------------------------------------0-2-3-2-0----------------------------------------------|
d|-----0-2-3-2-0---------0-2-3-2-0------2-----------2------0-2-3-2-0-----------------------------|
a|---2------------2----2-----------2--3------------------2-----------2---------------------------|
e|-3-----------------3---------------------------------3-----------------------------------------|

(Modified version)  I experimented with this song by adding in the "double" on each 
I think it sounds better and & adds an extra "umph" to the song.  You decide...

e|-----------------------------------------------------------------------------------------------|
b|-----------------------------------------------------------------------------------------------|
g|-----------------------------------------------------00-22-33-22-00----------------------------|
d|-----00-22-33-22-00---------00-22-33-22-00--------22----------------22------00-22-33-22-00-----|
a|---22--------------22----22----------------22--33-------------------------22---------------22--|
e|-33-------------------33-----------------------------------------------33----------------------|
Tap to rate this tab
 
# A B C D E F G H I J K L M N O P Q R S T U V W X Y Z