Guitaretab - guitar tabs
Song name
# A B C D E F G H I J K L M N O P Q R S T U V W X Y Z

Misc - Great Guitar Riffs tab

Great Guitar Riffs - Tabbed By Gavin McBride

All In Standard Tuning

No. 1  Smell's Like Teen Spirit - Nirvana

]---------------------------------------------------------[
]---------------------------------------------------------[
]--------------------3-3-3-x-x-x--------------------------[
]------3-3-3-x-x-x---5-5-5x-x-x---------------------------[
]------5-5-5-x-x-x---5-5-5x-x-x---------------------------[
]------5-5-5-x-x-x----------------------------------------[

]---------------------------------------------------------[
]---------------------------------------------------------[
]---------------------4-4-4-x-x-x-------------------------[
]-------444-x-x-x-----6-6-6-x-x-x-------------------------[
]-------666-x-x-x-----6-6-6-x-x-x-------------------------[
]-------666-x-x-x-----------------------------------------[


No. 2   Satisfaction - Rolling Stones

] --------------------------------------------------------[
] --------------------------------------------------------[
] --------------------------------------------------------[
] --------------------------------------------------------[
]---2--2----2-4-5--------5--5--4--22---------------------[
]---------------------------------------------------------[


No. 3  Matinee - Franz Ferdinand

] --------------------------------------------------------[
] --------------------------------------------------------[
] --------------------------------------------------------[
] -------2-----2------2-----2----------------4-4---4----4-[     
] --4-4---4-4---4-4---4-4----2-2-4-5-2-2-4-5--------------[
] --------------------------------------------------------[


No. 4 Don't Look Back Into The Sun - The Libertines

] --------------------------------------------------------[
] --------------------------------------------------------[
] -12/---4-4-5-7-5-4-4-5-7-5-4-4-5-7-4-5-7-4-5-7-5-4------[
] --------------------------------------------------------[
] --------------------------------------------------------[
] --------------------------------------------------------[

] --------------------------------------------------------[
] -7-9-11-7-9-11-7-9-11--9-7-9-7--------------------------[
] ---------------------------------7-7-5-5-4-4-2-2--------[
] --------------------------------------------------------[
] --------------------------------------------------------[
] --------------------------------------------------------[


No. 5 Seven Nation Army - The White Stripes
[ Tab from: http://www.guitaretab.com/m/misc/49973.html ]
] --------------------------------------------------------[
] --------------------------------------------------------[
] --------------------------------------------------------[
] --------------------------------------------------------[
] --------------------------------------------------------[
] ---5--5--8--5--3--1--0 -(or)--5-5-8-5-3-1/3-1-0---------[


No.6 In The Shadows - The Rasmus

] --------------------------------------------------------[
] --------------------------------------------------------[
] --------------------------------------------------------[
] --------------------------------------------------------[
] -5-5-5-4-5-4-0-------------0-2-4-5-4-5-4-0--------------[
] ----------------2-2-2-0-0-2-------------------2-2-4-4-5-[


No.7 In The End -  Linkin Park

] --------------------------------------------------------[
] --------------------------------------------------------[
] ------4--4----------------------------------------------[
] --2---------5--4--4--4--4--4-5--------------------------[
] --------------------------------------------------------[
] --------------------------------------------------------[


No. 8 Take a Look Around  (MI2 theme) - Limp Bizkit

] --------------------------------------------------------[
] --------------------------------------------------------[
] --------------------2--4 p2-----------------------------[
] --4--4--4--4---4------------4--4--4--4--4--2--3---------[
] --------------------------------------------------------[
] --------------------------------------------------------[


No.9 Sweet Home Alabama

] -------------------------------------------------------------------------[
] ------3-2--------------3-------------------------------------------------[
] -0-0------0--------------0----------------0---------------------2p0------[
] ----------------------------0-------------------0-------0-2p0------------[
] --------------3--0--3------------------------------0h2---------2---------[
] ---------------------------------3--0--3---------------------------------[


No.10  I Believe In A Thing Called Love - The Darkness 

] ---------------------------------------------------------------[
] ---------------------------------------------------------------[
] ---2-2-4-4--4-4-2---4-4-2-2------------------------------------[            
] 4--2-2-4-4--4-4-2-2-4-4-2-2------------------------------------[
] 4--0-0-2-2--2-2-0-2-2-2-0-0----0-2-4---------------------------[
] 2------------------0-------------------0-----------------------[
Related for Great Guitar Riffs tab