Song name
# A B C D E F G H I J K L M N O P Q R S T U V W X Y Z

Misc - Blues Boogie tab

-------------------------------------------------------------------------------
			     BOOGIE- MISC 
-------------------------------------------------------------------------------
Tabbed by:Jeremy Grimes 			
Email:aggie6970@yahoo.com

This is a little blues tune. I call it the Boogie im sure you have seen similar but
I still like it its fun to jam to just add a little solo and have fun!!!

Tuning:
	   x4			      x2                         x2 
e|-----------------------|--------------------------|---------------------------|
B|-----------------------|--------------------------|---------------------------|
G|-----------------------|-------2----4----5----4---|---------------------------|
D|-----2----4----5----4--|----0----0----0----0------|----2----4-----5----4------|
A|---0---0----0---0------|--------------------------|--0----0----0----0---------|
E|-----------------------|--------------------------|---------------------------|

e|-----------------------|--------------------------|---------------------------|
B|-----------------------|--------------------------|---------------------------|
G|-----------------------|------2----4----5----4----|--------NOW JUST ----------|
D|-----------------------|----0----0----0----0------|---------REPEAT -----------|
A|-----2----4----5----4--|--------------------------|---------------------------|
E|---0----0----0----0----|--------------------------|---------------------------|

           x1                        x1


| /  slide up
| \  slide down
| h  hammer-on
| p  pull-off
| ~  vibrato
| +  harmonic
| x  Mute note
===============================================================================
Tap to rate this tab
 
# A B C D E F G H I J K L M N O P Q R S T U V W X Y Z