Song name
# A B C D E F G H I J K L M N O P Q R S T U V W X Y Z

Misc - Home Depot Theme tab

THE HOME DEPOT THEME SONG
-------------------------
MISCELLANEOUS

E-MAIL: ANNIECO@COMCAST.NET

      D       A       D          G
E|----2---3-2-0-------0-2--3-2-----------|
B|------------------3----------3-0-------|
G|---------------------------------------|
D|---------------------------------------|
A|---------------------------------------|
E|---------------------------------------|

      D       A         A     D     G     A
E|----2---3-2-0-------0-0-2-3-2-0-----0-2-0---|
B|------------------3-------------3-3---------|
G|--------------------------------------------|
D|--------------------------------------------|
A|--------------------------------------------|
E|--------------------------------------------|

      D       A         D        G
E|----2---3-2-0-------0-2--3-2-----------|
B|------------------3----------3-0-------|
G|---------------------------------------|
D|---------------------------------------|
A|---------------------------------------|
E|---------------------------------------|

      D       A         A     D     A     D
E|----2---3-2-0-------0-0-2-3-2-0---0---------|
B|------------------3-------------3---3-2-3---|
G|--------------------------------------------|
D|--------------------------------------------|
A|--------------------------------------------|
E|--------------------------------------------|
Tap to rate this tab
# A B C D E F G H I J K L M N O P Q R S T U V W X Y Z