Guitaretab - guitar tabs
Song name
# A B C D E F G H I J K L M N O P Q R S T U V W X Y Z

Misc - Father Land tab

Fatherland- German National Anthem


e|--0-0-1-3-3-1-0---------0-0----|                  This Song is easy as 
b|----------------3-1-1-3-----3-3|                  1,2,3...
g|-------------------------------|                  all there is to it is
d|-------------------------------|                  just to get the timing 
a|-------------------------------|                  right....
e|-------------------------------|

e|--0-0-1-3-3-1-0---------0------|
b|----------------3-1-1-3---3-1-1|
g|-------------------------------|
d|-------------------------------|
a|-------------------------------|
e|-------------------------------|
[ Tab from: http://www.guitaretab.com/m/misc/50227.html ]
e|------0-----0-1-0-----0-1-0--------|                 Submitted by:
b|--3-3---1-3-------1-3-------3-1-3--|                  Nicklas Keng
g|----------------------------------0|
d|-----------------------------------|
a|-----------------------------------|         For any corrections 
e|-----------------------------------|         E-mail: 
                                                 nicklas_keng@hotmail.com
e|--0-0-1-3-3-1-0---------0------|                    
b|----------------3-1-1-3---3-1-1|
g|-------------------------------|
d|-------------------------------|
a|-------------------------------|
e|-------------------------------|

enjoy!!!!
Related for Father Land tab
Advertisement will be closed in 10 seconds