Guitaretab - guitar tabs
Song name
# A B C D E F G H I J K L M N O P Q R S T U V W X Y Z

Misc - Easy Little Piece tab

-------------------------------------------------------------------------------
EASY LITTLE PIECE #1
-------------------------------------------------------------------------------

TABBED BY ATC228
Email: atc228@aol.com

THIS IS JUST AN EASY LITTLE THING FOR TRUE BEGINNERS, BY TRUE BEGINNERS
I MEAN PEOPLE WHO HAVE BEEN PLAYING FOR A FEW DAYS,  WHEN I STARTED PLAYING
I COULD FIND VERY FEW EASY PIECES TO START OF ON SO I KNO HOW IT FEELS...

e|---------------------------------------------------------------------------|
B|---------------------------------------------------------------------------|
G|---------------------------------------------------------------------------|
D|-7-9-12-11-9---7-9-12-11-9---7-9-12-11-9---7-12-11-9---7-12-11-9-----------|  
A|---------------------------------------------------------------------------|
E|---------------------------------------------------------------------------|

e|---------------------------------------------------------------------------|
B|---------------------------------------------------------------------------|
G|---------------------------------------------------------------------------|
D|-7-9-12-11-9---7-9-12-11-9---7-9-12-11-9---9-9-7-7-7-12-12-9-9-9-----------|
A|---------------------------------------------------------------------------|
E|---------------------------------------------------------------------------|
[ Tab from: http://www.guitaretab.com/m/misc/50353.html ]
e|---------------------------------------------------------------------------|
B|---------------------------------------------------------------------------|
G|---------------------------------------------------------------------------|
D|-9-9-7-7-7-5-7-9-9-9---5-5-7-7-7-9-9-9-7-7-7---5-5-7-7-7-9-9-9-7-7-7-------|
A|---------------------------------------------------------------------------|
E|---------------------------------------------------------------------------|

e|---------------------------------------------------------------------------|
B|---------------------------------------------------------------------------|
G|---------------------------------------------------------------------------|
D|-5-5-9-9-9---5-5-9-9-9-----------------------------------------------------|
A|---------------------------------------------------------------------------|
E|---------------------------------------------------------------------------|

REPEAT ALL ABOVE

e|---------------------------------------------------------------------------|
B|---------------------------------------------------------------------------|
G|---------------------------------------------------------------------------|
D|-5-6-8-8-8---5-6-8-8-8---8-6-5-5-5---8-6-5-5-5-----------------------------|
A|---------------------------------------------------------------------------|
E|---------------------------------------------------------------------------|

REPEAT IF NEEDED

HAVE FUN
===============================================================================
Related for Easy Little Piece tab
Advertisement will be closed in 10 seconds