Song name
# A B C D E F G H I J K L M N O P Q R S T U V W X Y Z

Misc - Untitled Joey tab

Tuning:Standard

Something I thought up few weeks back, thought i'd share it. Play in 4/4 time, 
slow.

Verse:
            C                   Am        Am7               G
e|------------------------|----------|-----3------|----------------3--------|
B|-------1--------3-------|-------1--|-----1-----1|-------3--------------3--|
G|----------0-----------0-|---------2|------------|---------0---------------|
D|----2--------2-----2----|---2------|-2-----2----|------------0-----0------|
A|-3----------------------|0---------|------------|---2---------------------|
E|------------------------|----------|------------|3------------------------|
           Csus4/E
e|-------------------------|
B|-------1--------1-----1--|
G|----------0--------------|
D|----3--------3-----3-----|
A|-3-----------------------|
E|-------------------------|

Chorus:
       B5         Bm            A        G
e|------------|------------|---------|---------|
B|-------2----|----3-------|---------|---------|
G|----------4-|----------4-|-------6-|-------4-|
D|----4-------|-4-----4----|-------7-|-------5-|
A|-2----------|------------|----7----|----5----|
E|------------|------------|-5-------|-3-------|


If you play it at the speed of The Calling's "Wherever You Will Go", the last part of 
verse will sound quite like the final part of the song's intro riff too! :P oh, and if 
can tell me what key is this tune in, I'd like to know it.

Cheers! Comments, suggestions, putdowns:
joey_powermix@hotmail.com
Tap to rate this tab
# A B C D E F G H I J K L M N O P Q R S T U V W X Y Z