Song name
# A B C D E F G H I J K L M N O P Q R S T U V W X Y Z

Misc - Boogie Blues tab

Boogie Blues

submitted by Kurt

* = let ring

E|-------------------------------------------------------------------------|
B|-------------------------------------------------------------------------|
G|-----------------------------------0-2-0-3-0---------------2-4-2-5-2-----|
D|---0-2-0-3-0-2-0---0-2-0-3-0-------------------0-2-0-3-0-0-----------4-0-|
A|-----------------------------2-0-3---------------------------------------|
E|-3---------------3---------------------------3---------------------------|

-------------------------------------------------------------------|
-------------------------------------------------------------------|
----------------------------------------------------------0-2------|
----0-2-0-3-0-2-0---------0-2-------------0-2---------1-2-----1-2--|
----------------------1-2-----1-2-----1-2-----1-2-3-3--------------|
--3---------------3-3-------------3-3------------------------------|

------------------------------------------------------------------|
------------------------------------------------------------------|
--------------------------2-4-------------------------------------|
----------0-2-----0-0-3-4-----3-4---------0-2-----0-0-2-2-0-2-----|
------1-2-----1-2---------------------1-2-----1-2-------------1-2-|
--3-3-----------------------------3-3-------------3-3-3-3-3-------|

------------------------------------------------------------------|
------------------------------------------------------------------|
------------------0-0-2-2-0-2---------------------2-2-4-4-2-4-----|
--0-0-2-2-0-2-----------------1-2-0-0-2-2-0-2-----0-0-0-0-0---3-4-|
--------------1-2-3-3-3-3-3-------------------1-2-----------------|
--3-3-3-3-3-----------------------3-3-3-3-3-----------------------|

----------------------------------------------------------------|
--3-0-1-0-------------------------------------------------------|
------------0---------------------------------------0-2-0-3-0-2-|
----------3---2-0---0-2-0-3-0-2-0---0-2-0-3-0-------------------|
----------------------------------------------2---3-------------|
------------------3---------------3-------------3---------------|

---------------------------------------------3*---|
---------------------------------------------0*---|
--------------------2-4-2-5-2-----0----------0*---|
----0-2-0-3-0-2-0-0-----------4-0---0-2-0----0*---|
---------------------------------------------2*---|
--3---------------------------------------3--3*---|

boogie blues
Tap to rate this tab
 
# A B C D E F G H I J K L M N O P Q R S T U V W X Y Z