Song name
# A B C D E F G H I J K L M N O P Q R S T U V W X Y Z

Misc - Advanced Blues Riff tab

his is a common rock/blues riff 
theres two ways to play it


Hard way (you use barre cords)
          2x           2x           4x           2x           2x          2x                  
e|-------------------------------------------------------------------------------------|
B|-------------------------------------------------------------------------------------|
G|-------------7--7--7--7--------------9--9--9--9---7--7--7--7--------------7-/-8-/-9--|
D|-5--5--5--5--7--7--9--9--5--5--5--5--9--9--11-11--7--7--9--9--5--5--5--5--7-/-8-/-9--|
A|-7--7--9--9--5--5--5--5--7--7--9--9--7--7--7--7---5--5--5--5--7--7--9--9--5-/-6-/-7--|
E|-5--5--5--5--------------5--5--5--5---------------------------5--5--5--5-------------|
pm -  -  -  -  -  -  -  -  -  -  -  -  -  -  -  -   -  -  -  -  -  -  -  -

Easy way         
       2x           2x           4x           2x           2x          2x
e|-------------------------------------------------------------------------------------|
B|-------------------------------------------------------------------------------------|
G|--------------------------------------------------------------------------7-/-8-/-9--|
D|-------------7--7--9--9--------------9--9--11-11--7--7--9--9--------------7-/-8-/-9--|
A|-7--7--9--9--5--5--5--5--7--7--9--9--7--7--7--7---5--5--5--5--7--7--9--9--5-/-6-/-7--|
E|-5--5--5--5--------------5--5--5--5---------------------------5--5--5--5-------------|
pm -  -  -  -  -  -  -  -  -  -  -  -  -  -  -  -   -  -  -  -  -  -  -  -


you can also change the strumming patterns or speed of this riff have fun and mess 
around with it.
Tap to rate this tab
 
# A B C D E F G H I J K L M N O P Q R S T U V W X Y Z