Song name
# A B C D E F G H I J K L M N O P Q R S T U V W X Y Z

Misc - Blues Exercises 10 tab

Last One

E||---------------------|--5--5--------------|--5-----------------------|
B||------------------5--|--------------------|-----8--5-----------------|
G||------------5--6-----|--------------------|-----------7--5-----5--7--|
D||---------------------|--------------------|-----------------7--------|
A||---------------------|--------------------|--------------------------|
E||---------------------|--------------------|--------------------------|


                                                                 
---------------------|---------------------|--5--5--------------|
---------------------|------------------5--|--------------------|
--6------------------|------------5--6-----|--------------------|
---------------7--5--|---------------------|--------------------|
---------------------|---------------------|--------------------|
---------------------|---------------------|--------------------|


                                                                         
--8--5--------------------|--------------------|------------------------|
--------8--5--------------|--------------------|--7---------------------|
--------------7-----5--7--|--5h-------6--------|--7--6------------------|
-----------------7--------|--------------------|--------7--5------------|
--------------------------|--------------------|------------------5--6--|
--------------------------|--------------------|------------------------|


                                                                           
----------------------|------------------------|--------------------------|
------------5---------|-------5--7--8--7--5----|--------------------------|
-------7-------5------|-------5--7--8--7--5----|--------6--6--7--7--8--8--|
----------------------|----7-------------------|--7--7--------------------|
--7-------------------|------------------------|--------------------------|
----------------------|------------------------|--------------------------|


                                Bb7A7           
------------------------|-------6--5----------||
---------------------5--|-------6--5----------||
--9----8--7----5--6-----|--9----7--6----------||
-------7--6-------------|-------6--5----------||
-------8--7-------------|-------8--7----------||
------------------------|-------6--5----------||
Tap to rate this tab
# A B C D E F G H I J K L M N O P Q R S T U V W X Y Z