Song name
# A B C D E F G H I J K L M N O P Q R S T U V W X Y Z

Misc - Speed Exercise tab

Practice, when you can do it with the guitar muted, youre ready...

E||--------------------------------------------------|
B||--------------------------------------------------|
G||--------------------------------4-5-7-------5-7-9-|
D||--------------------------4-5-7-------5-7-9-------|
A||--------2-3-5-------3-5-7-------------------------|
E||--2-3-5-------3-5-7-------------------------------|

-----------------------------------------------------------12-14-15-|
--------------------------------------------------12-13-15----------|
---------7-9-11---------9-11-12----------11-12-14-------------------|
--7-9-10--------9-10-12---------10-12-14----------------------------|
--------------------------------------------------------------------|
--------------------------------------------------------------------|

-----------14-15-17----------15-17-19----------17-19-20~---|
--13-15-17----------15-17-19----------17-19-20-------------|
-----------------------------------------------------------|
-----------------------------------------------------------|
-----------------------------------------------------------|
-----------------------------------------------------------|

--20-19-17----------19-17-15----------17-15-14----------15-14-12------------|
-----------20-19-17----------19-17-15----------17-15-13----------15-13-12---|
--------------------------------------------------------------------------1-|
----------------------------------------------------------------------------|
----------------------------------------------------------------------------|
----------------------------------------------------------------------------|

-------------------|--------------------------------------------------|
-------------------|--------------------------------------------------|
-------------------|--------------------------------4-5-7-------5-7-9-|
--2----------------|--------------------------4-5-7-------5-7-9-------|
--2----------------|--------2-3-5-------3-5-7-------------------------|
--0----------------|--2-3-5-------3-5-7-------------------------------|

-----------------------------------------------------------12-14-15-|
--------------------------------------------------12-13-15----------|
---------7-9-11---------9-11-12----------11-12-14-------------------|
--7-9-10--------9-10-12---------10-12-14----------------------------|
--------------------------------------------------------------------|
--------------------------------------------------------------------|

-----------14-15-17----------15-17-19----------17-19-20~---|
--13-15-17----------15-17-19----------17-19-20-------------|
-----------------------------------------------------------|
-----------------------------------------------------------|
-----------------------------------------------------------|
-----------------------------------------------------------|

--20-19-17----------19-17-15----------17-15-14----------15-14-12------------|
-----------20-19-17----------19-17-15----------17-15-13----------15-13-12---|
--------------------------------------------------------------------------1-|
----------------------------------------------------------------------------|
----------------------------------------------------------------------------|
----------------------------------------------------------------------------|

-------------------|--------------------------------------------------|
-------------------|--------------------------------------------------|
-------------------|--------------------------------4-5-7-------5-7-9-|
--2----------------|--------------------------4-5-7-------5-7-9-------|
--2----------------|--------2-3-5-------3-5-7-------------------------|
--0----------------|--2-3-5-------3-5-7-------------------------------|

-----------------------------------------------------------12-14-15-|
--------------------------------------------------12-13-15----------|
---------7-9-11---------9-11-12----------11-12-14-------------------|
--7-9-10--------9-10-12---------10-12-14----------------------------|
--------------------------------------------------------------------|
--------------------------------------------------------------------|

-----------14-15-17----------15-17-19----------17-19-20~---|
--13-15-17----------15-17-19----------17-19-20-------------|
-----------------------------------------------------------|
-----------------------------------------------------------|
-----------------------------------------------------------|
-----------------------------------------------------------|

--20-19-17----------19-17-15----------17-15-14----------15-14-12------------|
-----------20-19-17----------19-17-15----------17-15-13----------15-13-12---|
--------------------------------------------------------------------------1-|
----------------------------------------------------------------------------|
----------------------------------------------------------------------------|
----------------------------------------------------------------------------|

-------------------||
-------------------||
-------------------||
--2----------------||
--2----------------||
--0----------------||
Tap to rate this tab
# A B C D E F G H I J K L M N O P Q R S T U V W X Y Z