Song name
# A B C D E F G H I J K L M N O P Q R S T U V W X Y Z

Misc - Freak Speed Exercise tab

E||----------------------------------|
B||----------------------------------|
G||----------------------------------|
D||----------------------------------|
A||----------------------------------|
E||--1-2-3-4-3-4-5-2-5-6-3-4-7-4-5-6-|


                                      
-------------------------------------|
-------------------------------------|
-------------------------------------|
-------------------------------------|
-------------------------------------|
--5-6-7-8-7-8-9-6-9-10-7-8-11-8-9-10-|


                                                  
-------------------------------------------------|
-------------------------------------------------|
-------------------------------------------------|
-------------------------------------------------|
-------------------------------------------------|
--9-10-11-12-11-12-13-10-13-14-11-12-15-12-13-14-|


                                                                         
----------------------------------|-------------------------------------|
----------------------------------|-------------------------------------|
----------------------------------|-------------------------------------|
----------------------------------|-------------------------------------|
--1-2-3-4-3-4-5-2-5-6-3-4-7-4-5-6-|--5-6-7-8-7-8-9-6-9-10-7-8-11-8-9-10-|
----------------------------------|-------------------------------------|


                                                  
-------------------------------------------------|
-------------------------------------------------|
-------------------------------------------------|
-------------------------------------------------|
--9-10-11-12-11-12-13-10-13-14-11-12-15-12-13-14-|
-------------------------------------------------|


                                                                         
----------------------------------|-------------------------------------|
----------------------------------|-------------------------------------|
----------------------------------|-------------------------------------|
--1-2-3-4-3-4-5-2-5-6-3-4-7-4-5-6-|--5-6-7-8-7-8-9-6-9-10-7-8-11-8-9-10-|
----------------------------------|-------------------------------------|
----------------------------------|-------------------------------------|


                                                  
-------------------------------------------------|
-------------------------------------------------|
-------------------------------------------------|
--9-10-11-12-11-12-13-10-13-14-11-12-15-12-13-14-|
-------------------------------------------------|
-------------------------------------------------|


                                                                         
----------------------------------|-------------------------------------|
----------------------------------|-------------------------------------|
--1-2-3-4-3-4-5-2-5-6-3-4-7-4-5-6-|--5-6-7-8-7-8-9-6-9-10-7-8-11-8-9-10-|
----------------------------------|-------------------------------------|
----------------------------------|-------------------------------------|
----------------------------------|-------------------------------------|


                                                  
-------------------------------------------------|
-------------------------------------------------|
--9-10-11-12-11-12-13-10-13-14-11-12-15-12-13-14-|
-------------------------------------------------|
-------------------------------------------------|
-------------------------------------------------|


                                                                         
----------------------------------|-------------------------------------|
--1-2-3-4-3-4-5-2-5-6-3-4-7-4-5-6-|--5-6-7-8-7-8-9-6-9-10-7-8-11-8-9-10-|
----------------------------------|-------------------------------------|
----------------------------------|-------------------------------------|
----------------------------------|-------------------------------------|
----------------------------------|-------------------------------------|


                                                  
-------------------------------------------------|
--9-10-11-12-11-12-13-10-13-14-11-12-15-12-13-14-|
-------------------------------------------------|
-------------------------------------------------|
-------------------------------------------------|
-------------------------------------------------|


                                                                         
--1-2-3-4-3-4-5-2-5-6-3-4-7-4-5-6-|--5-6-7-8-7-8-9-6-9-10-7-9-11-8-9-10-|
----------------------------------|-------------------------------------|
----------------------------------|-------------------------------------|
----------------------------------|-------------------------------------|
----------------------------------|-------------------------------------|
----------------------------------|-------------------------------------|


                                                                     
--9-10-11-12-11-12-13-10-13-14-11-12-15-12-13-14-|------------------|
-------------------------------------------------|------------------|
-------------------------------------------------|------------------|
-------------------------------------------------|------------------|
-------------------------------------------------|------------------|
-------------------------------------------------|------------------|
Tap to rate this tab
# A B C D E F G H I J K L M N O P Q R S T U V W X Y Z