Song name
# A B C D E F G H I J K L M N O P Q R S T U V W X Y Z

Misc - Exercise For Left And Right Hand tab

Start low and fasten up···

E||---------------------------------------|
B||---------------------------------------|
G||*--------------------------------------|
D||*--------------------------------------|
A||------------2--2--4--2--5--2--4--5--4--|
E||---0--3--4-----------------------------|


                                       
--------------------------------------|
--------------------------------------|
--------------------------------------|
--------------------2--2--4--2--5--2--|
--2--------0--3--4--------------------|
-----4--3-----------------------------|


                                       
--------------------------------------|
--------------------------------------|
--------------------------------------|
--4--5--4--2--------------------4--4--|
--------------4--3--2--2--5--6--------|
--------------------------------------|


                                       
--------------------------------------|
--------------------------------------|
--------------------------------------|
--6--4--7--4--6--7--6--4--------2--2--|
--------------------------6--5--------|
--------------------------------------|


                                   3x
-----------------------------------||
-----------------------------------||
----------------------------------*||
--------2--2--------2--2-----2----*||
--4--2--------4--2--------4--------||
-----------------------------------||
Tap to rate this tab
# A B C D E F G H I J K L M N O P Q R S T U V W X Y Z