Guitaretab - guitar tabs
Song name
# A B C D E F G H I J K L M N O P Q R S T U V W X Y Z

Misc - Speed And Accuracy tab

E||------------------------------------------------------------------------
B||------------------------------------------------------------------------
G||-----------------------------------------------------------------14-16-1
D||-----------------------------------------------14-16-17-14-16-17--------
A||-----------12-14-15----------14-15-17-14-15-17--------------------------
E||--12-14-15----------14-15-17--------------------------------------------


                                                                           
-----------------------------------------------17-19-20----------19-20-22-|
-----------------------------17-19-20-17-19-20----------19-20-22----------|
-----------16-17-19-16-17-19----------------------------------------------|
--16-17-19----------------------------------------------------------------|
--------------------------------------------------------------------------|
--------------------------------------------------------------------------|

[ Tab from: http://www.guitaretab.com/m/misc/51726.html ]
                                                                           
-----------15----------------15-17-19-------------------------------------|
--15-17-19----19-17-15-17-19-------------------15-------------------------|
-----------------------------------------------------------------16-17-19-|
--------------------------------------16-17-19----19-17-16-17-19----------|
--------------------------------------------------------------------------|
--------------------------------------------------------------------------|


                                                                           
--------------------------------------------------------------------------|
--------------------------------------------------------------------------|
-----------14----------------14-16-17-------------------------------------|
--14-16-17----17-16-14-16-17-------------------14----------------14-16-17-|
--------------------------------------14-15-17----17-15-14-15-17----------|
--------------------------------------------------------------------------|


                                                                           
--------------------------------------------------------------------------|
--------------------------------------------------------------------------|
--------------------------------------------------------------------------|
-----------12----------------12-14-15-------------------------------------|
--12-14-15----15-14-12-14-15-------------------12----------------12-14-15-|
--------------------------------------12-14-15----15-14-12-14-15----------|
Related for Speed And Accuracy tab
Advertisement will be closed in 10 seconds