Song name
# A B C D E F G H I J K L M N O P Q R S T U V W X Y Z

Misc - Warm Up Exercises tab

this is a good warm up tune to play if you have a band

guitar one

E|-----------------------------------------------------------------||
B|-----------------------------------------------------------------||
G|----------------------------------------------------------------o||
D|-7---7-7---7-7---5---5-5---5-5---3---3-3---3-3---5---5-5---5-5---||
A|-7---7-7---7-7---5---5-5---5-5---3---3-3---3-3---5---5-5---5-5--o||
E|-5---5-5---5-5---3---3-3---3-3---1---1-1---1-1---3---3-3---3-3---||
guitar one will be playing this the whole time

guitar two

E|------------------------8-10-12==12-10-8----------------------------|
B|-------------------8-10------------------10-8-----------------------|
G|-------------5-7-9----------------------------9-7-5-----------------|
D|---------5-7----------------------------------------7-5-------------|
A|---3-5-7------------------------------------------------7-5-3-------|
E|-5------------------------------------------------------------3-5-3-|
PLAY TWICE
Tap to rate this tab
# A B C D E F G H I J K L M N O P Q R S T U V W X Y Z