Song name
# A B C D E F G H I J K L M N O P Q R S T U V W X Y Z

Misc - French National Anthem tab

|-------------------------------------|
|-------------------------------------|
|-------------7---4----4------5-------|
|-----5-5-7-7-------5----5------7-4-5-|
|-5-5----------------------7----------|
|-------------------------------------|

|-------------------------------------|
|-------------------------------------|
|-----4-4-4-5-4-4-------4-5-5-5-7-5-4-|
|-5-7-------------7---7---------------|
|-------------------------------------|
|-------------------------------------|

|-------------------------------------|
|-------------------------------------|
|-7-7-7-4---7-4-----5-----------------|
|---------5-----5------7-4-5----------|
|-----------------7-------------------|
|-------------------------------------|
Tap to rate this tab
 
# A B C D E F G H I J K L M N O P Q R S T U V W X Y Z