Song name
# A B C D E F G H I J K L M N O P Q R S T U V W X Y Z

Misc - Fun Blues tab

Tabbed by: ctb
Email: ctb1989@hotmail.com
URL: http://www.freewebs.com/cliffordboulton
Updated: Sunday, 17th October 2004

/  slide up
\  slide down
h  hammer-on
p  pull-off
~  vibrato
+  harmonic
x  mute note

This is a fun tune to do, and its not that hard either...enjoy!

Part One
e|-----------------------------------------------------------------|
B|-----------------------------------------------------------------|
G|-----------------------------------------------------------------|
D|-----------------2-2-4-4-2-2-4-4---------------------------------|
A|-2-2-4-4-2-2-4-4-0-0-0-0-0-0-0-0-2-2-4-4-2-2-4-4-----------------|
E|-0-0-0-0-0-0-0-0-----------------0-0-0-0-0-0-0-0-1-1-2-2-3-3-4-4-|

Part Two
e|-----------------------------------------------------------------|
B|-----------------------------------------------------------------|
G|-----------------------------------------------------------------|
D|-2-2-4-4-2-2-------2-2-4-4-2-2-------2-2-4-4-2-2-----------------|
A|-0-0-0-0-0-0-0-3-4-0-0-0-0-0-0-0-3-4-0-0-0-0-0-0-----------------|
E|-----------------------------------------------------------------|

Part Three
e|-----0-----0-----0---0-------------------------------------------|
B|-------0-----0-----0-0-------------------------------------------|
G|-2/4-----3-----2-----1-------------------------------------------|
D|---------------------2-------------------------------------------|
A|---------------------2-------------------------------------------|
E|---------------------0-------------------------------------------|
Tap to rate this tab
 
# A B C D E F G H I J K L M N O P Q R S T U V W X Y Z