Song name
# A B C D E F G H I J K L M N O P Q R S T U V W X Y Z

Misc - Easy Rock tab

Tabbed by: $2 Food Stamp
Email: halo2k@forerunners.org

Here are some easy rock solos I thought of..

... = Palm Mute
h = hammer on
p = pull off
b^ = bend up
~ = vibrato

e|-------------------|----------------------------|-------------|
B|-------------------|----------------------------|-------------|
G|-------------------|----------------------------|-------3^-1~-|
D|---------0---------|-2---------2---4-2-1----2-0-|---2-0-------|
A|---------0---------|---3-2--0----3--------1-----|-1-----------|
E|-0-0-0-0-0-0-0-0-0-|----------------------------|-------------|
   .......   .......

e|----------------------------------------|
B|----------------------------------------|
G|----------------------4-5--5h7p5-5h7p5~-|
D|-----4--------4---4-5-------------------|
A|-4-5---5--4-5---5-----------------------|
E|----------------------------------------|

e|------------------------|
B|------------------------|
G|------------------------|
D|----------------7-9b^p7-|
A|-----7-9----7-9---------|
E|-/9~-----7~-------------|


Pretty easy solos for the beginner to learn..
Tap to rate this tab
# A B C D E F G H I J K L M N O P Q R S T U V W X Y Z