Song name
# A B C D E F G H I J K L M N O P Q R S T U V W X Y Z

Misc - German National Anthem tab

--------------------------------------------------
Deutsche Nationalhymne
--------------------------------------------------


e|----|--------|----|----|--------|----|
B|----|--------|----|1---|--------|----|
G|----|0---1-0-|----|--3-|1-0---0-|3---|
D|1--3|--3-----|301-|----|----3--1|----| -> repeat
A|----|--------|----|----|--------|----|
E|----|--------|----|----|--------|----|
                \/              \/ 



e|----|--------|----|----|--------|----|
B|----|--------|----|----|--------|----|
G|--0-|----1-0-|----|3-1-|0--02-23|3---|
D|3---|30------|30--|----|--------|----|
A|----|--1-----|--1-|----|--------|----|
E|----|--------|----|----|--------|----|
       \/       \/              \/



e|----|--------|----|-----|--------|----|
B|4--3|31--1---|----|-----|-1------|----|
G|----|--3----3|310-|---01|3-1---0-|----|
D|----|--------|----|3----|---31--3|1---| -> repeat
A|----|--------|----|-----|--------|----|
E|----|--------|----|-----|--------|----|
       \/       \/         \/\/  \/



Einigkeit und Recht und Freiheit
Für das deutsche Vaterland!
Danach laßt uns alle streben
Brüderlich mit Herz und Hand!
Einigkeit und Recht und Freiheit
Sind des Glückes Unterpfand -
Blüh im Glanze dieses Glückes,
Blühe, deutsches Vaterland.
Tap to rate this tab
# A B C D E F G H I J K L M N O P Q R S T U V W X Y Z