Song name
# A B C D E F G H I J K L M N O P Q R S T U V W X Y Z

Misc - Powerchords tab

E and A Root Powerchords
  E   F   F#  G   G#  A   A#  B   C   C#  D   D#  E   F    F#   G    G#   A    A#   B    C    C#   D    D#   E
e---|---|---|---|---|---|---|---|---|---|---|---|---|----|----|----|----|----|----|----|----|----|----|----|----
B---|---|---|---|---|---|---|---|---|---|---|---|---|----|----|----|----|----|----|----|----|----|----|----|----
G---|---|---|---|---|-2-|-3-|-4-|-5-|-6-|-7-|-8-|-9-|-10-|-11-|-12-|-13-|-14-|-15-|-16-|-17-|-18-|-19-|-20-|-21-
D-2-|-3-|-4-|-5-|-6-|-2-|-3-|-4-|-5-|-6-|-7-|-8-|-9-|-10-|-11-|-12-|-13-|-14-|-15-|-16-|-17-|-18-|-19-|-20-|-21-
A-2-|-3-|-4-|-5-|-6-|-0-|-1-|-2-|-3-|-4-|-5-|-6-|-7-|--8-|--9-|-10-|-11-|-12-|-13-|-14-|-15-|-16-|-17-|-18-|-19-
E-0-|-1-|-2-|-3-|-4-|---|---|---|---|---|---|---|---|----|----|----|----|----|----|----|----|----|----|----|----

E Root Powerchords
  E   F   F#  G   G#  A   A#  B   C   C#  D   D#  E   F    F#   G    G#   A    A#   B
e---|---|---|---|---|---|---|---|---|---|---|---|---|----|----|----|----|----|----|----|
B---|---|---|---|---|---|---|---|---|---|---|---|---|----|----|----|----|----|----|----|
G---|---|---|---|---|---|---|---|---|---|---|---|---|----|----|----|----|----|----|----|
D-2-|-3-|-4-|-5-|-6-|-7-|-8-|-9-|-10|-11|-12|-13|-14|-15-|-16-|-17-|-18-|-19-|-20-|-21-|
A-2-|-3-|-4-|-5-|-6-|-7-|-8-|-9-|-10|-11|-12|-13|-14|-15-|-16-|-17-|-18-|-19-|-20-|-21-|
E-0-|-1-|-2-|-3-|-4-|-5-|-6-|-7-|--8|--9|-10|-11|-12|-13-|-14-|-15-|-16-|-17-|-18-|-19-|
Tap to rate this tab
# A B C D E F G H I J K L M N O P Q R S T U V W X Y Z