Song name
# A B C D E F G H I J K L M N O P Q R S T U V W X Y Z

Misc - Roadrunner United - The End tab

ROADRUNNER UNITED - THE ALL-STAR SESSIONS

Track Five - The End

Roadrunner Records (2005)

Transcribed by - RustyAxe

Tuning - Dropped D down one whole step - CGCFAD (low to high)

Guitar I = CGCFAD
Guitar II = CGCFAD
Guitar III = CGCFAD

n  = Natural Harmonic
~  = Sustain (let it ring out)
.  = Palm Muted
() = Delay
b  = Bend

Intro
=====
D|-----------------------------------------------------------------------------|
A|------5n----7n--------5n----7n-----------5n----7n----------5n----------3n-5n-|
F|---------5n--------------5n----7n-----------5n----------------5n-------------|
C|-----------------------------------------------------------------------------|
G|-----------------------------------------------------------------------------|
C|-2-(2)---------2-5-(5)------------5-7-(7)---------9-7-5-(5)-------4-(4)------|

Verse
=====
D|-------------------------------------------------------------------|
A|----5n----7n------5n----7n---------5n----7n--------5n--------3n-5n-|
F|-------5n------------5n----7n---------5n--------------5n-----------|
C|-------------------------------------------------------------------|
G|-2~----------------------------------------------------------------|
C|-2~----------2-5~-------------5-7~----------9-7-5~--------4~-------|

D|-------------------------------------------------------------------|
A|----5n----7n------5n----7n---------5n----7n--------5n--------3n-5n-|
F|-------5n------------5n----7n---------5n--------------5n-----------|
C|-------------------------------------------------------------------|
G|-------------------------------------------------------------------|
C|-2~----------2-5~-------------5-7~----------9-7-5~--------4~-------|

Chorus
======
D|-------------------------------------------------------------------------|
A|-------------------------------------------------------------------------|
F|-------------------------------------------------------------------------|
C|-2-2-2-2-2-2-2-2--5-5-5-5-5-5-5-5--7-7-7-7-7-7-7-7--10-10-10-10--9-9-9-9-|
G|-2-2-2-2-2-2-2-2--5-5-5-5-5-5-5-5--7-7-7-7-7-7-7-7--10-10-10-10--9-9-9-9-|
C|-2-2-2-2-2-2-2-2--5-5-5-5-5-5-5-5--7-7-7-7-7-7-7-7--10-10-10-10--9-9-9-9-|

D|--------------------------------------------------------------|
A|--------------------------------------------------------------|
F|--------------------------------------------------------------|
C|-2-2-2-2-2-2-2-2--5-5-5-5-5-5-5-5--7-7-7-7-7-7-7-7--10~----9~-|
G|-2-2-2-2-2-2-2-2--5-5-5-5-5-5-5-5--7-7-7-7-7-7-7-7--10~----9~-|
C|-2-2-2-2-2-2-2-2--5-5-5-5-5-5-5-5--7-7-7-7-7-7-7-7--10~----9~-|

Verse
=====
D|-------------------------------------------------------------------|
A|----5n----7n------5n----7n---------5n----7n--------5n--------3n-5n-|
F|-------5n------------5n----7n---------5n--------------5n-----------|
C|-------------------------------------------------------------------|
G|-------------------------------------------------------------------|
C|-2~----------2-5~-------------5-7~----------9-7-5~--------4~-------|

D|-------------------------------------------------------------------|
A|----5n----7n------5n----7n---------5n----7n--------5n--------3n-5n-|
F|-------5n------------5n----7n---------5n--------------5n-----------|
C|-------------------------------------------------------------------|
G|-------------------------------------------------------------------|
C|-2~----------2-5~-------------5-7~----------9-7-5~--------4~-------|

Chorus
======
D|-------------------------------------------------------------------------|
A|-------------------------------------------------------------------------|
F|-------------------------------------------------------------------------|
C|-2-2-2-2-2-2-2-2--5-5-5-5-5-5-5-5--7-7-7-7-7-7-7-7--10-10-10-10--9-9-9-9-|
G|-2-2-2-2-2-2-2-2--5-5-5-5-5-5-5-5--7-7-7-7-7-7-7-7--10-10-10-10--9-9-9-9-|
C|-2-2-2-2-2-2-2-2--5-5-5-5-5-5-5-5--7-7-7-7-7-7-7-7--10-10-10-10--9-9-9-9-|

D|--------------------------------------------------------------|
A|--------------------------------------------------------------|
F|--------------------------------------------------------------|
C|-2-2-2-2-2-2-2-2--5-5-5-5-5-5-5-5--7-7-7-7-7-7-7-7--10~----9~-|
G|-2-2-2-2-2-2-2-2--5-5-5-5-5-5-5-5--7-7-7-7-7-7-7-7--10~----9~-|
C|-2-2-2-2-2-2-2-2--5-5-5-5-5-5-5-5--7-7-7-7-7-7-7-7--10~----9~-|

Bridge
======
D|------------------------------------------------|
A|------------------------------------------------|
F|------------------------------------------------|
C|------------------------------------------------|
G|------------------------------------------------|
C|-10-10-10-10--9-9-9-9--12-12-12-12--11-11-11-11-|
  ................................................        x3

D|------------------------------------------------------------------|
A|------------------------------------------------------------------|
F|------------------------------------------------------------------|
C|-------------------------------------------------------------(2~)-|  
G|-------------------------------------------------------------(2~)-|       
C|-10-10-10-10--9-9-9-9--12-12-12-12--14-14-14-14-14-14-14-14--(2~)-|
  ............................................................
  ( ) = Play this chord last time through

Solo (played during Bridge)
====
D|-----------------------------------------------|
A|-----------------------------------------------|
F|-9/11~-12~-14~-11~-12~-16~-14~-19~-19~-17~-16~-|
C|-----------------------------------------------|
G|-----------------------------------------------|
C|-----------------------------------------------|

D|-----------------------------------------------|
A|-----------------------------------------------|
F|-19-17-16-17-16-14-16-12-14-11-----------------|
C|-----------------------------------------------|
G|-----------------------------------------------|
C|-----------------------------------------------|

D|-15-14-------15-14-------15-14-------15-14-17b19-|
A|-------15-12-------15-12-------15-12-------------|
F|-------------------------------------------------|
C|-------------------------------------------------|
G|-------------------------------------------------|
C|-------------------------------------------------|

Verse
=====
D|-------------------------------------------------------------------|
A|----5n----7n------5n----7n---------5n----7n--------5n--------3n-5n-|
F|-------5n------------5n----7n---------5n--------------5n-----------|
C|-------------------------------------------------------------------|
G|-------------------------------------------------------------------|
C|-2~----------2-5~-------------5-7~----------9-7-5~--------4~-------|

D|-------------------------------------------------------------------|
A|----5n----7n------5n----7n---------5n----7n--------5n--------3n-5n-|
F|-------5n------------5n----7n---------5n--------------5n-----------|
C|-------------------------------------------------------------------|
G|-------------------------------------------------------------------|
C|-2~----------2-5~-------------5-7~----------9-7-5~--------4~-------|

Outro
=====
D|--------------------------------|
A|--------------------------------|
F|--------------------------------|
C|-2-2--5-5--7-7--10-10-10--9-9-9-|
G|-2-2--5-5--7-7--10-10-10--9-9-9-|
C|-2-2--5-5--7-7--10-10-10--9-9-9-|
      .    .    .

D|-------------------------------------------------------------------------|
A|-------------------------------------------------------------------------|
F|-------------------------------------------------------------------------|
C|-2-2-2-2-2-2-2-2--5-5-5-5-5-5-5-5--7-7-7-7-7-7-7-7--10-10-10-10--9-9-9-9-|
G|-2-2-2-2-2-2-2-2--5-5-5-5-5-5-5-5--7-7-7-7-7-7-7-7--10-10-10-10--9-9-9-9-|
C|-2-2-2-2-2-2-2-2--5-5-5-5-5-5-5-5--7-7-7-7-7-7-7-7--10-10-10-10--9-9-9-9-|

D|-------------------------------------------------------------------------|
A|-------------------------------------------------------------------------|
F|-------------------------------------------------------------------------|
C|-2-2-2-2-2-2-2-2--4-4-4-4-4-4-4-4--5-5-5-5-5-5-5-5--10-10-10-10--9-9-9-9-|
G|-------------------------------------------------------------------------|
C|-------------------------------------------------------------------------|
	(backing guitar)

D|---------------------------------------------------|
A|---------------------------------------------------|
F|---------------------------------------------------|
C|-2-2-2-2-2-2-2-2--5-5-5-5-5-5-5-5--7-7-7-7-7-7-7-7-|
G|-2-2-2-2-2-2-2-2--5-5-5-5-5-5-5-5--7-7-7-7-7-7-7-7-|
C|-2-2-2-2-2-2-2-2--5-5-5-5-5-5-5-5--7-7-7-7-7-7-7-7-|
                                                   .

D|---------------------------------------------------|
A|---------------------------------------------------|
F|---------------------------------------------------|
C|-2-2-2-2-2-2-2-2--4-4-4-4-4-4-4-4--5-5-5-5-5-5-5-5-|
G|---------------------------------------------------|
C|---------------------------------------------------|
	(backing guitar)


Music written by Dino Cazares
Lyrics written by Matthew K. Heafy

Matthew K. Heafy - vocals, solo
Dino Cazares - rhythm guitar
Nadja Peulen - bass
Roy Mayorga - drums
Logan Mader - melodic guitar harmonics
Rhys Fulber - keyboards, programming

Recorded at Undercity Recordings,
North Hollywood, CA
February 16 - 21, 2005
Tap to rate this tab
 
# A B C D E F G H I J K L M N O P Q R S T U V W X Y Z