Song name
# A B C D E F G H I J K L M N O P Q R S T U V W X Y Z

Misc - Guitar Accompanyment tab

this is a cool little piece that my friend Sean made!

e|---0-------------------0-----------------|
B|-----12-10-12-10-12------12-10-12-10-9--o|
G|-----------------------------------------|
D|-----------------------------------------|
A|----------------------------------------o|
E|-0-------------------0-------------------|

|---0----12-10-12-10/9---0-----------------|
|-----12-------------------12-10-12-10-9---|
|------------------------------------------|
|------------------------------------------|
|------------------------------------------|
|-0--------------------0-------------------|  repeat until you want to stop!



Legend:

h = hammer-on
p = pull-off
b = bend
/ = slide up
\ = slide down
v = vibrato
Tap to rate this tab
# A B C D E F G H I J K L M N O P Q R S T U V W X Y Z