Song name
# A B C D E F G H I J K L M N O P Q R S T U V W X Y Z

Misc - Roadrunner United - Baptised In The Redemption tab

----------------------------------------------------------------------------
         Roadrunner United - Baptised In The Redemption
----------------------------------------------------------------------------
Thi is a track taken from the new album (Roadrunner United - The Allstar Sessions)
Tuning from low to hi - DADgbe

INTRO (X 4)(clean with effect) (play v fast dont know how many times to play each 
to track)
e--------------------------------------------------------|
b--------------------------------------------------------|
g--------------------------------------------------------|
D-5-7-3-5-543--------------------------------------------|
A-5-7-3-5-543--------------------------------------------|
D-3-5-1-3-321--------------------------------------------|
INTRO part 2 (X 4)(with heavy distortion)
e--------------------------------------------------------|
b--------------------------------------------------------|
g--------------------------------------------------------|
D-5-7-3-5-543--------------------------------------------|
A-5-7-3-5-543--------------------------------------------|
D-3-5-1-3-321--------------------------------------------|
e--------------------------------------------------------|
VERSE (X4)(with heavy distortion)
b--------------------------------------------------------|
g--------------------------------------------------------|
D-5-7-3-5-3--5-7-3-5-5-----------------------------------|
A-5-7-3-5-3--5-7-3-5-5-----------------------------------|
D-3-5-1-3-1--3-5-1-3-3-----------------------------------|
CHORUS (X 2)(clean with effect)(play same as intro)
e--------------------------------------------------------|
b--------------------------------------------------------|
g--------------------------------------------------------|
D-5-7-3-5-543--5-7-3-5-3---------------------------------|
A-5-7-3-5-543--5-7-3-5-3---------------------------------|
D-3-5-1-3-321--3-5-1-3-1---------------------------------|
CHORUS part 2(X 2)(with heavy distortion)
e--------------------------------------------------------|
b--------------------------------------------------------|
g--------------------------------------------------------|
D-5-7-3-5-543--5-7-3-5-543-------------------------------|
A-5-7-3-5-543--5-7-3-5-543-------------------------------|
D-3-5-1-3-321--3-5-1-3-321-------------------------------|

That's as much as i know at the moment ,  it's a pretty basic tab but still, it's my 
tab so pls comment.
Tap to rate this tab
 
# A B C D E F G H I J K L M N O P Q R S T U V W X Y Z