Song name
# A B C D E F G H I J K L M N O P Q R S T U V W X Y Z

Misc - Roadrunner United - Enemy Of The State tab

                Enemy of the State - Roadrunner United
----------------------------------------------------------------------------------------------|
Tabbed by: Jomas
Email: sun_lolly@hotmail.co.uk

Don't know what effects are used yet cos my amps broke sorry.

Chorus
E|-------------------------------------------------------------------------|
B|-------------------------------------------------------------------------|
G|---------5-----7---------------------------------------------------------|
D|---0--3--5--5--7---------------------------------------------------------|
A|---0--3--3--5--5---------------------------------------------------------|
D|---0--3-----5--0---------------------------------------------------------|


Verse (first half of verse has no guitar)
E|--------------------------------------------15--17--18--17---------------|
B|---17--13--15----17--13--15----17--13--15--------------------------------|
G|-------------------------------------------------------------------------|
D|-------------------------------------------------------------------------|
A|-------------------------------------------------------------------------|
D|-------------------------------------------------------------------------|


Solo (play each note a few times except for the last note. listen to the track for the 
number of times)
E|--12-13----------------------17-------15-12-13----17b18b17---------------|
B|-------------------10-----------18-15------------------------------------|
G|---------10-9-8-9-----9-10-----------------------------------------------|
D|-------------------------------------------------------------------------|
A|-------------------------------------------------------------------------|
D|-------------------------------------------------------------------------|


Outro pt 1 (first part played 6 times then it goes onto the second part)
E|---------------|------10-------------------------------------------------|
B|----13p10------|---------------------------------------------------------|
G|---------------|---------------------------------------------------------|
D|---------------|---------------------------------------------------------|
A|---------------|---------------------------------------------------------|
D|---------------|---------------------------------------------------------|


Outro pt 2 (on the last time this is played repeat the last 5 notes)
E|------------19b20b19-17-------------15-17--------------------------------|
B|---15-17-18----------------15-17-18--------------------------------------|
G|-------------------------------------------------------------------------|
D|-------------------------------------------------------------------------|
A|-------------------------------------------------------------------------|
E|-------------------------------------------------------------------------|


Order:

Chorus x2
Verse x1
Chorus x2
Verse x1
Solo x1
Verse x1
Outro pt 1 x1
Outro pt 2 x6


| /  slide up
| \  slide down
| h  hammer-on
| p  pull-off
| ~  vibrato
| +  harmonic
| x  Mute note
============================================================================
Tap to rate this tab
# A B C D E F G H I J K L M N O P Q R S T U V W X Y Z