Song name
# A B C D E F G H I J K L M N O P Q R S T U V W X Y Z

Misc - Fuller Blues tab

Misc
Fuller Blues
tabbed by les-is-more

**KEY***
/= slide
b= bend
h= hammer
                              *****REPEAT ONCE*****
e|-0------------------------0------------------------0-----0--0--0----------|
B|-0------------------------0------------------------0-----2--3--3----------|
G|-3/4--4--2--4--2--0-------3/4--4--2--4--2--0-------0h1---3--4--4----------|
D|---------------------2-------------------------2--------------------------|
A|--------------------------------------------------------------------------|
E|--------------------------------------------------------------------------|

         *****NOTE- ON BEND, BEND UP AND THEN DOWN*****

e|--------6--7-------------------------------------0--4--0--3--0--2--0--------|
B|-9--10--------10--7--------------5--7--5--7b--5--0--3--0--2--0--1--0--4-5-6-|
G|---------------------8-----5--5------------------0--4--0--3--0--2--0--5-6-7-|
D|------------------------9---------------------------------------------4-5-6-|
A|----------------------------------------------------------------------------|
E|----------------------------------------------------------------------------|

                              *****REPEAT ONCE*****
e|-0------------------------0------------------------0-----0--0--0----------|
B|-0------------------------0------------------------0-----2--3--3----------|
G|-3/4--4--2--4--2--0-------3/4--4--2--4--2--0-------0h1---3--4--4----------|
D|---------------------2-------------------------2--------------------------|
A|--------------------------------------------------------------------------|
E|--------------------------------------------------------------------------|

        *****NOTE- ON BEND, BEND UP AND THEN DOWN*****

e|--------6--7-------------------------------------0--4--0--3--0--2--0-------|
B|-9--10--------10--7--------------5--7--5--7b--5--0--3--0--2--0--1--0-------|
G|---------------------8-----5--5------------------0--4--0--3--0--2--0-------|
D|------------------------9--------------------------------------------------|
A|---------------------------------------------------------------------------|
E|---------------------------------------------------------------------------|
Tap to rate this tab
# A B C D E F G H I J K L M N O P Q R S T U V W X Y Z