Guitaretab - guitar tabs
Song name
# A B C D E F G H I J K L M N O P Q R S T U V W X Y Z

Misc - Blues On The Double tab

-----------------------------------------------------------------------------
			     BLUES ON THE DOUBLE - Misc
-----------------------------------------------------------------------------
Tabbed by:  Travis Wong
Email: travis_wong@hotmail.com

Hey guys!  This tune is really fun to play around with.  The first part is played
rather quickly (like triplets), while the second measure slows down on the bass
notes to give it a real blues feeling.  Its in 4/4 time, but you can feel it out
and play it however you like.  I also like to play the fast begining part, and
then fiddle around with some improv using scales in the second measure.  Enjoy!

Tuning: EADGBe

e|-----------------------------|--------------------------------------------|
B|--3-3-3-3-3-3--2-2-2--1-1-1--|--0-----------------------------------------|
G|--4-4-4-4-4-4--3-3-3--2-2-2--|--0-------------0---------------------------|
D|-----------------------------|----0----2-0------0-----2-0-----------------|
A|-----------------------------|--------------------------------------------|
E|-----------------------------|--------------------------------------------|

e|-----------------------------|--------------------------------------------|
B|--3-3-3-3-3-3--2-2-2--1-1-1--|--0-----------------------------------------|
G|--4-4-4-4-4-4--3-3-3--2-2-2--|--0-------------0---------------------------|
D|-----------------------------|----0----2-0------0-----2-0-----------------|
A|-----------------------------|--------------------------------------------|
E|-----------------------------|--------------------------------------------|

e|--3-3-3-3-3-3--2-2-2--1-1-1--|--0-----------------------------------------|
B|--5-5-5-5-5-5--4-4-4--3-3-3--|--1--------------1--------------------------|
G|-----------------------------|----0----2-0-------0----2-0-----------------|
D|-----------------------------|--------------------------------------------|
A|-----------------------------|--------------------------------------------|
E|-----------------------------|--------------------------------------------|

e|-----------------------------|--------------------------------------------|
B|--3-3-3-3-3-3--2-2-2--1-1-1--|--0-----------------------------------------|
G|--4-4-4-4-4-4--3-3-3--2-2-2--|--0-------------0---------------------------|
D|-----------------------------|----0----2-0------0-----2-0-----------------|
A|-----------------------------|--------------------------------------------|
E|-----------------------------|--------------------------------------------|

e|--2-2-2-2-2-2--2-------------|--0-0-0-0-0-0--0----------------------------|
B|--1-1-1-1-1-1--1-------------|--1-1-1-1-1-1--1----------------------------|
G|--2-2-2-2-2-2--2-------------|--0-0-0-0-0-0--0----------------------------|
D|-----------------0---2-0-----|-----------------0-----2-0------------------|
A|-----------------------------|--------------------------------------------|
E|-----------------------------|--------------------------------------------|
[ Tab from: http://www.guitaretab.com/m/misc/68003.html ]
e|-----------------------------|----------------2---------------------------|
B|--3-3-3-3-3-3--2-2-2--1-1-1--|--0-------------1---------------------------|
G|--4-4-4-4-4-4--3-3-3--2-2-2--|--0-------------2---------------------------|
D|-----------------------------|----0----2-0------0-----2-0-----------------|
A|-----------------------------|--------------------------------------------|
E|-----------------------------|--------------------------------------------|

e|---------------------------------|----------------------------------------|
B|--3---3-----3------2---2--1---1--|--0-------------------------------------|
G|----4-----4---4------3------2----|--0------------0------------------------|
D|---------------------------------|----0---2-0------0---2-0----------------|
A|---------------------------------|----------------------------------------|
E|---------------------------------|----------------------------------------|

e|---------------------------------|----------------------------------------|
B|--3---3-----3------2---2--1---1--|--0-------------------------------------|
G|----4-----4---4------3------2----|--0------------0------------------------|
D|---------------------------------|----0---2-0------0---2-0----------------|
A|---------------------------------|----------------------------------------|
E|---------------------------------|----------------------------------------|

e|--3---3-----3-----2---2---1---1--|--0-------------------------------------|
B|----5-----5---5-----4-------3----|--1-----------1-------------------------|
G|---------------------------------|----0---2-0-----0----2-0----------------|
D|---------------------------------|----------------------------------------|
A|---------------------------------|----------------------------------------|
E|---------------------------------|----------------------------------------|

e|---------------------------------|----------------------------------------|
B|--3---3-----3------2---2--1---1--|--0-------------------------------------|
G|----4-----4---4------3------2----|--0------------0------------------------|
D|---------------------------------|----0---2-0------0---2-0----------------|
A|---------------------------------|----------------------------------------|
E|---------------------------------|----------------------------------------|

e|--2-2-2-2-2-2--2-------------|--0-0-0-0-0-0--0----------------------------|
B|--1-1-1-1-1-1--1-------------|--1-1-1-1-1-1--1----------------------------|
G|--2-2-2-2-2-2--2-------------|--0-0-0-0-0-0--0----------------------------|
D|-----------------0---2-0-----|-----------------0-----2-0------------------|
A|-----------------------------|--------------------------------------------|
E|-----------------------------|--------------------------------------------|

e|---------------------------------|--------------------------3~~~----------|
B|--3---3-----3------2---2--1---1--|--0-----------------------0~~~----------|
G|----4-----4---4------3------2----|--0-----------------------0~~~----------|
D|---------------------------------|----0---2-0---------------0~~~----------|
A|---------------------------------|--------------------------2~~~----------|
E|---------------------------------|-----------------3~~~-----3~~~----------|

| /  slide up
| \  slide down
| h  hammer-on
| p  pull-off
| ~  vibrato
| +  harmonic
| x  Mute note
=============================================================================
Related for Blues On The Double tab
Advertisement will be closed in 10 seconds