Song name
# A B C D E F G H I J K L M N O P Q R S T U V W X Y Z

Misc - Roadrunner United - The Rich Man tab

SONG - THE RICH MAN
ALBUM - ROADRUNNER UNITED
TUNING - DROP B (B,F#,B,E,G#,C#,)

~ = LET RING
/ = SLIDE
* = PALM MUTE
^ = BEND
X = MUTE STRING
<5> = HARMONIC
h = HAMMER ON
P = PULL OFF

 THIS IS A AWSOME SONG,IF U DIDNT GET IT IT ITS ABOUT THE WAR IN 
 IRAQ,THIS IS 100%.PLZ RATE


      INTRO/VERSE (GTR 2 SLIDES AND SCRAPES WITH DELAY&FLANGER)

    FLANGER & REVERB
C#---------------------------7~--]--------------------------]
G#--5---5---------5--------------]--5---5------5------------]
E----7---7---------7--7-7/9------]---7---7------7-7-7/9-----]
B--------------------------------]----------------------9~--]
F#-------------------------------]--------------------------]
B--------------------------------]--------------------------]

                
    chorus
C#-------]--------------------<4>------------------------------]
G#-------]-----------------------<4>---------------------------]
E--------]--------<5>------------------------------------------]
B--------]--------------------------------------3-2---2-1-1-0--]
F#--5^~--]--3-2-X-----0-3-2-X--------0-3-2-----2---3-2---2-----]
B--------]--3-2-X-----0-3-2-X--------0-3-2--0h3----------------]



 INTERLUDE

C#-----------------------------X4]--------X2]
G#-------------------------------]----------]
E--------------------------------]----------]
B--------------------------------]--8~--8~--]
F#-------------------------------]--6~--6~--]
B---4~-4~-4~-4~--5~-5~--3~-3~----]----------]



   'WHY AM I HERE!......WHAT DID I DO!......
C#-----------------------x4]
G#-------------------------]
E--------------------------]
B-------6-5---4-3-----2-1--]
F#-----5---6-3---4-2-1-----]
B---0h6--------------------]


  WHY!.....WHY!.......WHY!.......
C#-------------------------------]
G#-------------------------------]
E--------------------------------]
B--------------------------------]
F#--6~--6~------6~--6~--6~~~~~~--]
B---6~--6~------6~--6~--6~~~~~~--]



      OUTRO (GTR 2 SLIDES AND SCRAPES WITH DELAY&FLANGER)

    FLANGER & REVERB
C#---------------------------7~--]--------------------------]
G#--5---5---------5--------------]--5---5------5------------]
E----7---7---------7--7-7/9------]---7---7------7-7-7/9-----]
B--------------------------------]----------------------9~--]
F#-------------------------------]--------------------------]
B--------------------------------]--------------------------]


 
THE END.
PLZ RATE

TABBED BY - IMMORTAL _STONE
Tap to rate this tab
 
# A B C D E F G H I J K L M N O P Q R S T U V W X Y Z