Song name
# A B C D E F G H I J K L M N O P Q R S T U V W X Y Z

Misc - Roadrunner United - Annihilation By The Hands Of God tab

Band - Roadrunner United
Album - The All-Star Sessions
Song - Annihilation By The Hands Of God
Tabber - Killswitch_mike - Only On UG

Intro:

D|------------------------------------------------------------------------|
A|------------------------------------------------------------------------|
F|------------------------------------------------------------------------|
C|-------3-2-3-5-6-5-3-5-3-2----------------------------------------------|
G|-------3-2-3-5-6-5-3-5-3-2--TR.7777777777777-11111111--88888888--22222--|
C|-12\1--3-2-3-5-6-5-3-5-3-2----------------------------------------------|
             .       .
D|-------------------|
A|-------------------|
F|-14h12p0-11/10p0---|
C|-------------------|    X 3
G|-------------------|
C|-------------------|

D|---------------------------------------|
A|---------------------------------------|
F|---------------------------------------|
C|--2~------------------Gain Kicks In----|
G|--2~-----------------------------------|
C|--2~-----------------------------------|

D|----------------|
A|----------------|
F|----------------|
C|<<<<<<<<<<<<<---|
G|<<<<<<<<<<<<<---|
C|<<<<<<<<<<<<<---|



Verse;

D|-----------------------------------------------------------|
A|-----------------------------------------------------------|
F|-----------------------------------------------------------|
C|-0-33653222230--33653222230--33653222230--337632888830-----|
G|-0-33653222230--33653222230--33653222230--337632888830-----|
C|-0-33653222230--33653222230--33653222230--337632888830-----|
     ...........  ...........  ...........  ............

D|-----------------------------------------|
A|-----------------------------------------|
F|-----------------------------------------|
C|-0-33653222230--33653222230--3365322223--|
G|-0-33653222230--33653222230--3365322223--|
C|-0-33653222230--33653222230--3365322223--|
     ...........  ...........  ..........  

D|-----------------------------------------------------------|
A|-----------------------------------------------------------|
F|-----------------------------------------------------------|
C|-0-33653222230--33653222230--33653222230--337632888830-----|
G|-0-33653222230--33653222230--33653222230--337632888830-----|
C|-0-33653222230--33653222230--33653222230--337632888830-----|
     ...........  ...........  ...........  ............

Pre- Chorus

D|-------------------------------------|
A|-------------------------------------|
F|-------------------------------------|
C|--33-2--33333-2--5--33-2--33333-2-5--| x 4
G|--33-2--33333-2-----33-2--33333-2----|
C|--33-2--33333-2-----33-2--33333-2----| 
    ..    .....       ..    .....


Chorus;

D|--------------------|
A|--------------------|
F|--------------------|
C|-33333-777777-55555-| x 5
G|-33333-777777-55555-|
C|-33333-777777-55555-|

Backing Guitar;

D|---------------------------------------------------------|
A|---------6---------6---------------8----------8----------| Comes In on 3rd
F|----4/5----5---4/5---5---------6/7---7----6/7---7--------| time Of Lead
C|---------------------------------------------------------| x 2
G|---------------------------------------------------------|
C|---------------------------------------------------------|


Verse;

D|-----------------------------------------------------------|
A|-----------------------------------------------------------|
F|-----------------------------------------------------------|
C|-0-33653222230--33653222230--33653222230--337632888830-----|
G|-0-33653222230--33653222230--33653222230--337632888830-----|
C|-0-33653222230--33653222230--33653222230--337632888830-----|
     ...........  ...........  ...........  ............

D|-----------------------------------------|
A|-----------------------------------------|
F|-----------------------------------------|
C|-0-33653222230--33653222230--3365322223--|
G|-0-33653222230--33653222230--3365322223--|
C|-0-33653222230--33653222230--3365322223--|
     ...........  ...........  ..........  

D|-----------------------------------------------------------|
A|-----------------------------------------------------------|
F|-----------------------------------------------------------|
C|-0-33653222230--33653222230--33653222230--337632888830-----|
G|-0-33653222230--33653222230--33653222230--337632888830-----|
C|-0-33653222230--33653222230--33653222230--337632888830-----|
     ...........  ...........  ...........  ............


Chorus;

D|--------------------|
A|--------------------|
F|--------------------|
C|-33333-777777-55555-| x 5
G|-33333-777777-55555-|
C|-33333-777777-55555-|

Backing Guitar;

D|---------------------------------------------------------|
A|---------6---------6---------------8----------8----------| Comes In on 3rd
F|----4/5----5---4/5---5---------6/7---7----6/7---7--------| time Of Lead
C|---------------------------------------------------------| x 2
G|---------------------------------------------------------|
C|---------------------------------------------------------|


Breakdown;

D|----------------------------------------------------------|
A|----------------------------------------------------------|
F|----------------------------------------------------------|
C|------------------------------44-6-4-7-3-4--44-6-4-7-3-4--|
G|-44-6-4-7-3-4---44-6-4-7-3-4--44-6-4-7-3-4--44-6-4-7-3-4--|
C|------------------------------44-6-4-7-3-4--44-6-4-7-3-4--|
                                .. . . . . .  .. . . . . . 

D|---8b--7b-7----------------------|
A|---------------------------------|
F|------------3*^-0-3*^-0-3-2------|
C|----------------------------3-2--|
G|---------------------------------|
C|---------------------------------|


Solo;

----------- No Where Near Done On This, Can Anyone Help?---------------


Outro


D|-------------------------------------|
A|-------------------------------------|
F|-------------------------------------|
C|--33-2--33333-2--5--33-2--33333-2-5--| x 4
G|--33-2--33333-2-----33-2--33333-2----|
C|--33-2--33333-2-----33-2--33333-2----| 
    ..    .....       ..    .....

D|---8b--7b-7----------------------|
A|---------------------------------|
F|------------3*^-0-3*^-0-3-2------|
C|----------------------------3-2--| x 4
G|---------------------------------|
C|---------------------------------|

D|-----------------------------------------------------------|
A|-----------------------------------------------------------|
F|-----------------------------------------------------------|
C|-0-33653222230--33653222230--33653222230--337632888830-----|
G|-0-33653222230--33653222230--33653222230--337632888830-----|
C|-0-33653222230--33653222230--33653222230--337632888830-----|
     ...........  ...........  ...........  ............

D|-----------------------------------------|
A|-----------------------------------------|
F|-----------------------------------------|
C|-0-33653222230--33653222230--3365322223--|
G|-0-33653222230--33653222230--3365322223--|
C|-0-33653222230--33653222230--3365322223--|
     ...........  ...........  ..........  

Any Comments/Questions Email Me, Rate Please
Tap to rate this tab
# A B C D E F G H I J K L M N O P Q R S T U V W X Y Z