Song name
# A B C D E F G H I J K L M N O P Q R S T U V W X Y Z

Misc - Roadrunner United - No Way Out tab

Song: no way out
Alrtist: Raodrunner united
Tuning: Drop D

This, in my opinion, this is utterly crap, and it doesnt help that they use weird
chords in it either. but there are no other tabs for it, so i thought i'd give it a try.

Intro:
  Gtr 1
e]-----------------------------------------------------|
B]-----------------------------------------------------|
G]-10-10-10-10-12-12-10-10-10-10-14-14-10-10-10-9-9-9--| loads of times
D]-----------------------------------------------------|
A]-----------------------------------------------------|
D]-----------------------------------------------------|

  Gtr 2 (this isn't the exact amount of times each chord is played,
but it gives the pattern in which they are played)
e]---------------------------------------------------------|
B]---------------------------------------------------------|
G]---------------------------------------------------------| loads of times
D]---3-3-3-8-8-7-7--3-3-3-5-5-5-3-3-3--3-3-3-5-5-5--8-7-3--|
A]---3-3-3-8-8-7-7--3-3-3-5-5-5-3-3-3--3-3-3-5-5-5--8-7-3--|
D]---3-3-3-8-8-7-7--3-3-3-5-5-5-3-3-3--3-3-3-5-5-5--8-7-3--|

Verse:

e]-----------------------------------------|
B]-----------------------------------------|
G]-------------------------------5-5--3-3--|
D]-0-0----10-0-0----10-10--7-7---5-5--3-3--| 4 times
A]-0-0----8--0-0----8--8---5-5---3-3--1-1--|
D]-0-0----8--0-0----8--8---5-5-------------|

Chorus:
 Gtr 1
e]-----------------------------------------------------|
B]-----------------------------------------------------|
G]-10-10-10-10-12-12-10-10-10-10-14-14-10-10-10-9-9-9--|
D]-----------------------------------------------------|
A]-----------------------------------------------------|
D]-----------------------------------------------------|

 Gtr 2
e]--------------------------------------------------------------------|
B]--------------------------------------------------------------------|
G]--------------------------------------------------------------------|
D]--7----3-5-3---7-8---12--10--12-----7----3-5-3----7-8---6---5---3---|
A]--7----3-5-3---7-8---12--10--12-----7----3-5-3----7-8---8---5---3---|
D]--7----3-5-3---7-8---12--10--12-----7----3-5-3----7-8---8---5---3---|
                       ^^^^^^^^^^
              unsure about this bit: sounds bad

Verse:

e]-----------------------------------------|
B]-----------------------------------------|
G]-------------------------------5-5--3-3--|
D]-0-0----10-0-0----10-10--7-7---5-5--3-3--| 4 times again i think
A]-0-0----8--0-0----8--8---5-5---3-3--1-1--|
D]-0-0----8--0-0----8--8---5-5-------------|

Chorus:
 Gtr 1
e]-----------------------------------------------------|
B]-----------------------------------------------------|
G]-10-10-10-10-12-12-10-10-10-10-14-14-10-10-10-9-9-9--|
D]-----------------------------------------------------|
A]-----------------------------------------------------|
D]-----------------------------------------------------|

 Gtr 2
e]--------------------------------------------------------------------|
B]--------------------------------------------------------------------|
G]--------------------------------------------------------------------|
D]--7----3-5-3---7-8---12--10--12-----7----3-5-3----7-8---6---5---3---|
A]--7----3-5-3---7-8---12--10--12-----7----3-5-3----7-8---8---5---3---|
D]--7----3-5-3---7-8---12--10--12-----7----3-5-3----7-8---8---5---3---|

Bridge:

I have no idea about this bit, but i think the start of the little riff (which is repeated) is this
e]------------------------------------|
B]------------------------------------|
G]---14-14-12-12-10-10-12-12-8-8------|
D]------------------------------------|
A]------------------------------------|
D]------------------------------------|

Chorus:
 Gtr 1
e]-----------------------------------------------------|
B]-----------------------------------------------------|
G]-10-10-10-10-12-12-10-10-10-10-14-14-10-10-10-9-9-9--|
D]-----------------------------------------------------|
A]-----------------------------------------------------|
D]-----------------------------------------------------|

 Gtr 2
e]--------------------------------------------------------------------|
B]--------------------------------------------------------------------|
G]--------------------------------------------------------------------|
D]--7----3-5-3---7-8---12--10--12-----7----3-5-3----7-8---6---5---3---|
A]--7----3-5-3---7-8---12--10--12-----7----3-5-3----7-8---8---5---3---|
D]--7----3-5-3---7-8---12--10--12-----7----3-5-3----7-8---8---5---3---|

Key Change Chorus:

Again, i am very unsure of this bit and i'm certain that it is NOT octave chords,
but oh well. these ovtaves are strummed a few times:
e]----------------------|
B]----------------------|
G]--7--9--10-13--12-----|
D]--x--x--x---x---x-----|
A]--5--7--8--11--10-----|
D]----------------------|

end:
e]-------|
B]-------|
G]-------|
D]-5-3-5-|
A]-5-3-5-|
D]-5-3-5-|

Pretty rubbish, right? but it's better than nothing. if you have any
suggestions/improvements (there are enough of them) email me:
blindedinchains0@aol.com
Tap to rate this tab
# A B C D E F G H I J K L M N O P Q R S T U V W X Y Z