Song name
# A B C D E F G H I J K L M N O P Q R S T U V W X Y Z

Misc - Roadrunner United - The Enemy tab

Band - Roadrunner United
Song - The Enemy
Album - The All Star Sessions

Tuning - Low To High - C G C F A D

Tabbed By - Killswitch_mike

---------------- Acoustic Is In Standard Tuning ( EADGBE)-----------------


Acoustic Intro;


I am In The Making Of This, Will Be Posted Very Soon






Continued Intro (Distorted);

D||---------------------------------------||
A||---------------------------------------||
F||---------------------------------------||
C||----2--3-5--2--3h2p0-------------------|| x 3
G||---5--5----5---------3h2p0-------5-----||
C||--0--0-0--0----------------3h2p0-------||
     .  . .  .

Verse;

D||---------------------------------------||
A||---------------------------------------||
F||---------------------------------------||
C||----2--3-5--2--3h2p0-------------------|| x 3
G||--55-55---55---------3h2p0-------5-----||
C||--------------------------3h2p0-------=||
     .. ..   ..


Chorus;

D||---------------------------------||
A||---------------------------------||
F||---------------------------------||
C||-3-3-5/6-x--2-2-5/6--0-000000----||
G||-3-3-5/6-x--2-2-5/6--0-000000----||
C||-3-3-5/6-x--2-2-5/6--0-000000----||   
                          ...... 

Pre Verse

 
D||---------------------------------------||
A||---------------------------------------||
F||---------------------------------------||
C||----2--3-5--2--3h2p0-------------------|| x 3
G||---5--5----5---------3h2p0-------5-----||
C||--0--0-0--0----------------3h2p0-------||
     .  . .  .

Verse;

D||---------------------------------------||
A||---------------------------------------||
F||---------------------------------------||
C||----2--3-5--2--3h2p0-------------------|| x 3
G||--55-55---55---------3h2p0-------5-----||
C||--------------------------3h2p0-------=||
     .. ..   ..


Chorus;

D||---------------------------------||
A||---------------------------------||
F||---------------------------------||
C||-3-3-5/6-x--2-2-5/6--0-000000----||
G||-3-3-5/6-x--2-2-5/6--0-000000----||
C||-3-3-5/6-x--2-2-5/6--0-000000----|| 
                          ......  


Solo;

Cant Figure Out Yet


D||---------------------------------------||
A||---------------------------------------||
F||---------------------------------------||
C||----2--3-5--2--3h2p0-------------------|| x 3
G||--55-55---55---------3h2p0-------5-----||
C||--------------------------3h2p0-------=||
     .. ..   ..

D||---------------------------------------||
A||---------------------------------------||
F||---------------------------------------||
C||----2--3-5--2--3h2p0-------------------|| x 3
G||---5--5----5---------3h2p0-------5-----||
C||--0--0-0--0----------------3h2p0-------||
     .  . .  .

Verse;

D||---------------------------------------||
A||---------------------------------------||
F||---------------------------------------||
C||----2--3-5--2--3h2p0-------------------|| x 3
G||--55-55---55---------3h2p0-------5-----||
C||--------------------------3h2p0-------=||
     .. ..   ..

Chorus;

D||---------------------------------||
A||---------------------------------||
F||---------------------------------||
C||-3-3-5/6-x--2-2-5/6--0-000000----||
G||-3-3-5/6-x--2-2-5/6--0-000000----||
C||-3-3-5/6-x--2-2-5/6--0-000000----||   
                          ......

Tap to rate this tab
# A B C D E F G H I J K L M N O P Q R S T U V W X Y Z