Song name
# A B C D E F G H I J K L M N O P Q R S T U V W X Y Z

Misc - Roadrunner United - Army Of The Sun tab

-------------------------------------------------------------------------------
			     Army of the Sun - Roadrunner United
-------------------------------------------------------------------------------
Tabbed by: jomas
Email: sun_lolly@hotmail.co.uk

Tuning: Drop D

Can't figure out the first few seconds yet and I can only figure out 1 guitar in some 
This song is heavily distorted unless stated otherwise.

Intro/Chorus
e|-------------------------------------------------------------------------|
B|-------------------------------------------------------------------------|
G|-------------------------------------------------------------------------|
D|------------777---666----------------------------------------------------|
A|---444------------------777---444--------------777------------555--444---|
D|--------------------------------------000--------------000---------------|


Verse (both guitars)
e|------------------xxx---------------------------------xxx----------------|
B|------------------xxx---------------------------------xxx----------------|
G|------------------xxx---------------------------------xxx----------------|
D|-0-0-0-0----4-4-4-----0-0-0-0---4-4-7-6-0-0-0-0-4-4-4-----0-0-0-0--------|
A|-0-0-0-0----4-4-4-----0-0-0-0---4-4-7-6-0-0-0-0-4-4-4-----0-0-0-0--------|
D|-0-0-0-0----4-4-4-----0-0-0-0---4-4-7-6-0-0-0-0-4-4-4-----0-0-0-0--------|


e|-------------------------------------------------------------------------|
B|-------------------------------------------------------------------------|
G|-4-4-4-4---6-6-6-6-------------------------------------------------------|
D|-4-4-4-4---6-6-6-6-------------------------------------------------------|
A|-2-2-2-2---4-4-4-4-------------------------------------------------------|
D|-------------------------------------------------------------------------|


Middle pt 1 (guitar 1 plays notes, guitar 2 plays the chords)
e|-------------------------------------------------------------------------|
B|-------------------------------------------------------------------------|
G|-------------------------------------------------------------------------|
D|--0--7-6--4--7-6-7--0--7-6--2--7-6-7-------------------------------------|
A|--0-------4---------0-------2--------------------------------------------|
D|--0-------4---------0-------2--------------------------------------------|


Middle pt 2 (Both guitars)
e|---------------------------------------------------------------------------|
B|---------------------------------------------------------------------------|
G|---------------------------------------------------------------------------|
D|--2-4-4-4-2-4-4-4-7-2-4-4-4-2-4-4-4-0-2-4-4-4-2-4-4-4-7-2-4-4-4-0000000----|
A|--2-4-4-4-2-4-4-4-7-2-4-4-4-2-4-4-4-0-2-4-4-4-2-4-4-4-7-2-4-4-4-0000000----|
D|--2-4-4-4-2-4-4-4-7-2-4-4-4-2-4-4-4-0-2-4-4-4-2-4-4-4-7-2-4-4-4-0000000----|
pm                                                                -----------|


middle pt 3 (less distorted)
only have one guitar part at the moment although i think the 2nd guitar plays this chord 
little distortion) at some intervals (listen to the track for them)

(x-9-11-11-11-9)

e|-------------------------------------------------------------------------|
B|-------------------------------------------------------------------------|
G|-------------------------------------------------------------------------|
D|---4-4-4-4-4-4-7-7-7-7-7-7-4-4-4-4-4-4-9-9-9-7-7-6-6-4-4-4-4-4-4-4-7-7-7-|
A|-------------------------------------------------------------------------|
D|-------------------------------------------------------------------------|


e|-------------------------------------------------------------------------|
B|-------------------------------------------------------------------------|
G|-------------------------------------------------------------------------|
D|-7-7-7-4-4-4-4-4-4-9-9-9-9-9-9-11-11-11-11-11-11-12-12-12-12-12-12-11-11-|
A|-------------------------------------------------------------------------|
D|-------------------------------------------------------------------------|


e|-------------------------------------------------------------------------|
B|-------------------------------------------------------------------------|
G|-------------------------------------------------------------------------|
D|-11-11-11-11-------------------------------------------------------------|
A|-------------------------------------------------------------------------|
D|-------------------------------------------------------------------------|


Outro pt 1 (guitar 1 plays notes, guitar 2 plays the chords)
e|-------------------------------------------------------------------------|
B|-------------------------------------------------------------------------|
G|-------------------------------------------------------------------------|
D|--0--7-6--4--7-6-7-------------------------------------------------------|
A|--0-------4--------------------------------------------------------------|
D|--0-------4--------------------------------------------------------------|

Outro pt 2 (both guitars)
e|-------------------------------------------------------------------------|
B|-------------------------------------------------------------------------|
G|-------------------------------------------------------------------------|
D|--2-4-4-4----------------------------------------------------------------|
A|--2-4-4-4----------------------------------------------------------------|
D|--2-4-4-4----------------------------------------------------------------|

Order:

Intro x3
Verse x1
Chorus x4
Verse x1
Chorus x4
Middle pt 1 x1
Middle pt 2 x1
Middle pt 3 x1
Chorus x4
Outro pt 1 x1
Outro pt 2 x1


| /  slide up
|   slide down
| h  hammer-on
| p  pull-off
| ~  vibrato
| +  harmonic
| x  Mute note
===============================================================================
Tap to rate this tab
# A B C D E F G H I J K L M N O P Q R S T U V W X Y Z