Song name
# A B C D E F G H I J K L M N O P Q R S T U V W X Y Z

Misc - Roadrunner United - I Dont Wanna Be A Superhero tab

I Don't Wanna Be (A Superhero) by Roadrunner United

Haha, another song nobody has yet tabbed, so I've
done it myself =D. This is pretty much it, and it sounds right.
Nice, easy and fun song to play :P Any questions mail me at 
Dark.sunrise@hotmail.co.uk =DDD


Intro and Verse
e|------------------------------|------------------------------|
B|------------------------------|------------------------------|
G|-7--7--9--9-10--10-10--10--10-|-7--7--9--9-10--10-10--10--10-|
D|-7--7--9--9-10--10-10--10--10-|-7--7--9--9-10--10-10--10--10-|
A|-5--5--7--7-8---8--8---8---8--|-5--5--7--7-8---8--8---8---8--|
E|------------------------------|------------------------------|

e|-------------------------|------------------------|
B|-------------------------|------------------------|
G|-5--5--5--5-5----5--5--5-|-2--2--2--2--6--6--6--6-|
D|-5--5--5--5-5----5--5--5-|-2--2--2--2--6--6--6--6-|
A|-3--3--3--3-3----3--3--3-|-0--0--0--0--4--4--4--4-|
E|-------------------------|------------------------|
Play this through once for the intro and twice for the verse.

Bridge
e|-------------------------|-------------------------|
B|-------------------------|-------------------------|
G|--7--7--7--7--7--7--7--7-|--7--7--7--7--7--7--7--7-|
D|--7--7--7--7--7--7--7--7-|--7--7--7--7--7--7--7--7-|
A|--5--5--5--5--5--5--5--5-|--5--5--5--5--5--5--5--5-|
E|-------------------------|-------------------------|

e|-------------------------|-------------------------|
B|-------------------------|-------------------------|
G|--6--6--6--6--6--6--6--6-|--6--6--6--6--6--6--6--6-|
D|--6--6--6--6--6--6--6--6-|--6--6--6--6--6--6--6--6-|
A|--4--4--4--4--4--4--4--4-|--4--4--4--4--4--4--4--4-|
E|-------------------------|-------------------------|

e|-------------------------|-------------------------|
B|-------------------------|-------------------------|
G|-------------------------|--10--10--10--12--14---9-|
D|--3--3--3--3--2--2--2--2-|--10--10--10--12--14---9-|
A|--3--3--3--3--2--2--2--2-|--8---8---8---10--12---7-|
E|--1--1--1--1--0--0--0--0-|-------------------------|
PLay this through just once...

Chorus
e|-------------------------|---------------------------------|
B|-------------------------|---------------------------------|
G|--7--7--7--7-------------|--10--10--10--10-----------------|
D|--7--7--7--7--8--8--8--8-|--10--10--10--10--10--10--10--10-|
A|--5--5--5--5--8--8--8--8-|--8---8---8---8---10--10--10--10-|
E|--------------6--6--6--6-|------------------8---8---8---8--|

e|-------------------------|-------------------------|
B|-------------------------|-------------------------|
G|-------------------------|--6--6--6--7--9--9--9--9-|
D|--7--7--7--7--7--7--7--7-|--6--6--6--7--9--9--9--9-|
A|--7--7--7--7--7--7--7--7-|--4--4--4--5--7--7--7--7-|
E|--5--5--5--5--5--5--5--5-|-------------------------|
...And play this through twice :D

Bridge two and rhythm under solo
e|-------------------------|-------------------------|
B|-------------------------|-------------------------|
G|--7--7--7--7-------------|--6--6--6--6-------------|
D|--7--7--7--7--3--3--3--3-|--6--6--6--6--2--2--2--2-|
A|--5--5--5--5--3--3--3--3-|--4--4--4--4--2--2--2--2-|
E|--------------1--1--1--1-|--------------0--0--0--0-|
Play this four times, first two times play it palm 
muted (before solo) and the second two times play it
normally (during solo). I havent got round to tabbing 
the solo or the extra guitar part under the last chorus
and I probly never will 'cus im lazy =DDD. 

Anyway, this is pretty much the main parts of the song. 
Any questions or whatever feel free to add me on MSN, my
address is Dark.Sunrise@hotmail.co.uk =]



Tap to rate this tab
# A B C D E F G H I J K L M N O P Q R S T U V W X Y Z