Song name
# A B C D E F G H I J K L M N O P Q R S T U V W X Y Z

Misc - Roadrunner United - Tired N Lonely tab

Evenin all! I think I've figured this out okay, well enough to play with people or along with the track.

Tuning: drop D
Slide Down: <<<
Bend: ^
Hold: ~

e|------------------------------------------|
B|------------------------------------------|
G|------------------------------------------|
D|------------------------------------------|
A|-<<<-3205-256-3205-256-3205-256-320-------|
D|-<<<-3205-256-3205-256-3205-256-320-5543--|

e|-----------------------------------------|
B|-----------------------------------------|
G|-----------------------------------------|
D|--------------------------------5543^----|
A|-3205-256-3205-256-3205-256-320----------|
D|-3205-256-3205-256-3205-256-320----------|

e|-----------------------------------------|
B|-----------------------------------------|
G|-----------------------------------------|
D|-7--2~-----------------------------------|
A|-7--2~-9--5~--5-5-5----------------------|
D|-------9--5~--5-5-5----------------------|

Verse:
e|-----------------------------------------|
B|-----------------------------------------|
G|-----------------------------------------|
D|--------------------------------5543^----|
A|-3205-256-3205-256-3205-256-320----------|
D|-3205-256-3205-256-3205-256-320----------|
   **** *** **** *** **** *** ***          palm mute

e|-----------------------------------------|
B|-----------------------------------------|
G|-----------------------------------------|
D|--------------------------------5543^----|
A|-3205-256-3205-256-3205-256-320----------|
D|-3205-256-3205-256-3205-256-320----------|
   **** *** **** *** **** *** ***          palm mute

Bridge:
e|-----------------------------------------|
B|-----------------------------------------|
G|-----------------------------------------|
D|-----------------------------------------|
A|-3205-256-3205-256-3205-256-320----------|
D|-3205-256-3205-256-3205-256-320-5543^----|

Chorus:
e|-----------------------------------------|
B|-----------------------------------------|
G|-----------------------------------------|
D|-7--2~--2023-300--7--2~------------------|
A|-7--2~--2023-300--7--2~--9-5~------------|
D|-------------------------9-5~------------|

e|-----------------------------------------|
B|-----------------------------------------|
G|-----------------------------------------|
D|-7--2~--2023-300--7--2~------------------|
A|-7--2~--2023-300--7--2~--9-5-5-5-5-------|
D|-------------------------9-5-5-5-5-------|

Bridge:
e|-----------------------------------------|
B|-----------------------------------------|
G|-----------------------------------------|
D|--------------------------------5543^----|
A|-3205-256-3205-256-3205-256-320----------|
D|-3205-256-3205-256-3205-256-320----------|

Verse:
e|-----------------------------------------|
B|-----------------------------------------|
G|-----------------------------------------|
D|--------------------------------5543^----|
A|-3205-256-3205-256-3205-256-320----------|
D|-3205-256-3205-256-3205-256-320----------|
   **** *** **** *** **** *** ***          palm mute

e|-----------------------------------------|
B|-----------------------------------------|
G|-----------------------------------------|
D|--------------------------------5543^----|
A|-3205-256-3205-256-3205-256-320----------|
D|-3205-256-3205-256-3205-256-320----------|
   **** *** **** *** **** *** ***          palm mute

Bridge:
e|-----------------------------------------|
B|-----------------------------------------|
G|-----------------------------------------|
D|--------------------------------5543^----|
A|-3205-256-3205-256-3205-256-320----------|
D|-3205-256-3205-256-3205-256-320----------|

Chorus:
e|-----------------------------------------|
B|-----------------------------------------|
G|-----------------------------------------|
D|-7--2--2023-300--7--2--------------------|
A|-7--2--2023-300--7--2----9-5-------------|
D|-------------------------9-5-------------|

e|-----------------------------------------|
B|-----------------------------------------|
G|-----------------------------------------|
D|-7--2--2023-300--7--2--------------------|
A|-7--2--2023-300--7--2----9-5-5-5-5-------|
D|-------------------------9-5-5-5-5-------|

Middle Eight:
e|-----------------------------------------|
B|-----------------------------------------|
G|-----------------------------------------|
D|-----------------------------------------|
A|-7-2~--0-2~---7-2~--0-2--2-2-2-----------|
D|-7-2~--0-2~---7-2~--0-2--2-2-2-----------|

Solo:
e|-----------------------------------------|
B|-----------------------------------------|
G|-----------------------------------------|
D|-----------------------------------------|   [x2]
A|-----------------------------------------|
D|-3332-220-22---3332-220-22---------------|

e|----------0-12-0-10-0-8--------------------|
B|--0---------------------------8-10^10p8h10-|
G|-^3^~---------------------7-9--------------|
D|-------------------------------------------|
A|-------------------------------------------|
D|-------------------------------------------|

e|---------------------------------------------|
B|-------------------12h14p12---16-16p14p12h16-|
G|-------12h14p12-12---------------------------|
D|-12-12---------------------------------------|
A|---------------------------------------------|
D|---------------------------------------------|

e|--------------------------------------------------17^~<-|
B|--------------------14-17-17-14-17-17-14-17-14-14-------|
G|-12-12h14-14h16-16--------------------------------------|
D|--------------------------------------------------------|
A|--------------------------------------------------------|
D|--------------------------------------------------------|

Chorus:
e|-----------------------------------------|
B|-----------------------------------------|
G|-----------------------------------------|
D|-7--2--2023-300--7--2--------------------|
A|-7--2--2023-300--7--2----9-5-------------|
D|-------------------------9-5-------------|

e|-----------------------------------------|
B|-----------------------------------------|
G|-----------------------------------------|
D|-7--2--2023-300--7--2--------------------|
A|-7--2--2023-300--7--2----9-5-5-5-5-------|
D|-------------------------9-5-5-5-5-------|

Outro:
e|------------------------------------------|
B|------------------------------------------|
G|------------------------------------------|
D|------------------------------------------|
A|-3205-256-3205-256-3205-256-320-----------|
D|-3205-256-3205-256-3205-256-320-5543^~~~~-|

That's all folks! Any hints or advice about this tab please don't hesitate to let me 
Hope you enjoy the song!
Bye bye!
Tap to rate this tab
# A B C D E F G H I J K L M N O P Q R S T U V W X Y Z