Guitaretab - guitar tabs
Song name
# A B C D E F G H I J K L M N O P Q R S T U V W X Y Z

Misc - Roadrunner United - Dawn Of A Golden Age tab

Roadrunner United
Dawn of a Golden Age
Tuning-Standard (EADGBe)

t:tremelo pick
.:palm mute
/:slide up
\:slide down
h:hammer-on
p:pull-off


Intro\Chorus (volume Swell At Opening)            After Last Time
|-----------------------------------------------|    |---|
|-----------------------------------------------|    |---|
|-----------------------------------------------|    |---|
|---9-8-9-8-5-8---9-8-9-11-12---9-8-9-8-5-8-----|    |---|
|---7-6-7-6-3-6---7-6-7--9-10---7-6-7-6-3-6-6-7-|    |-2-|
|-0-------------0-------------0-------------7-8-| x2 |-0-|
    t t t t t t   t t t t  t    t t t t t t t t

Verse
|-----------------------------------------------------------|
|------------------------------------8---10-11-8---10-11-14-|
|---------------------------9-8--------7---------7----------|
|-9---9-10-9---9-10-8---8-9-----11-9------------------------|
|---7--------7--------6-------------------------------------|
|-----------------------------------------------------------|
  t t t  t t t t  t t t t t t t  t t t t  t  t t t  t  t  t


|----------------------|
|----13----11----13----|
|-10----10----10----10-|
|----------------------|
|----------------------|
|----------------------| play all x2
   t  t  t  t  t  t  t
   .     .     .     .

Chorus
|-----------------------------------------------|
|-----------------------------------------------|
|-----------------------------------------------|
|---9-8-9-8-5-8---9-8-9-11-12---9-8-9-8-5-8-----|
|---7-6-7-6-3-6---7-6-7--9-10---7-6-7-6-3-6-6-7-|
|-0-------------0-------------0-------------7-8-| x2
    t t t t t t   t t t t  t    t t t t t t t t

Verse
|-----------------------------------------------------------|
|------------------------------------8---10-11-8---10-11-14-|
|---------------------------9-8--------7---------7----------|
|-9---9-10-9---9-10-8---8-9-----11-9------------------------|
|---7--------7--------6-------------------------------------|
|-----------------------------------------------------------|
  t t t  t t t t  t t t t t t t  t t t t  t  t t t  t  t  t


|----------------------|
|----13----11----13----|
|-10----10----10----10-|
|----------------------|
|----------------------|
|----------------------| play all x2
   t  t  t  t  t  t  t
   .     .     .     .

Pre-Solo Breakdown
|-----------------------------------------|
|-----------------------------------------|
|-----------------------------------------|
|-5\4/5----------------10/11\10-----------|
|-7\6/7-----------------9/10\-9-------7-6-|
|-------0-000-0-000-0-0-------0-000-0-8-7-| x4
        . ... . ... . .       . ... . t t


|-----|---------------|	    |-------|
|-----|---------------|	    |-------|
|-----|---------------|	    |-------|
|-----|---------------|	    |-------|
|-3---|-1-3-5-5-6-----|     |-1-3-4-|
|---2-|-----------5-6-|  x3 |-------|
  t t   t t t t t t t         t t t
[ Tab from: http://www.guitaretab.com/m/misc/93021.html ]
Under Solo
|-----------------------------------------|
|-----------------------------------------|
|-----------------------------------------|
|-5\4/5----------------10/11\10-----------|
|-7\6/7-----------------9/10\-9-------7-6-|
|-------0-000-0-000-0-0-------0-000-0-8-7-| x2
        . ... . ... . .       . ... . t t

Post-Solo Breakdown
|-----------------|
|-----------------|
|-----------------|
|----2--4-5-4-2-4-|
|-2--0--2-3-2-0-2-|
|-0---------------|

  [ x2            ][ x2           ][ x2             ]
|----------------------------------------------------------------|
|----------------------------------------------------------------|
|----------------------------------------------------------------|
|-----------------------------------22222222-2-2-2-2-------------|
|-22222222-2-2-2-2-22222222-2-2-2-2-00000000-0-0-0-0-2-3-2-0-2-2-|
|-00000000-0-0-0-0-33333333-3-3-3-2------------------------------| x2
  ........ . . . . ........ . . . . ........ . . . . . . . . . .
                                                     t t t t t t

------------------------------------------------------------------------------|
------------------------------------------------------------------------------|
9---11-12-11-9----------------------------------------------------------------|
--9------------9----------------------------7-9---------------9-10-9----------|
-----------------10---10-9-10-12-10-9-7---7-----12-10-9-7---9--------12-10-9--|
--------------------8-------------------5-----------------7-------------------|
t t  t  t  t t t  t t  t t  t  t  t t t t t t t  t  t t t t t t  t t  t  t t
above x4

|---------------------------------------------------------------------------|
|---------------------------------------------------------------------------|
|---------------------------------------------------------------------------|
|---------3/6\3-------------------------------3/6\3-------------------------|
|-2-3-2-2-----------------------------2-3-2-2-------7h10p7h10...-6h9p6h9...-|
|-0-1-0-0-1/4\1-5h8p5h8...-4h7p4h7...-0-1-0-0-1/4\1-------------------------|
    t                                   t
    .                                   .

|----------------------------------------------------------------------------|
|----------------------------------------------------------------------------|
|----------------------------------------------------------------------------|
|---------3/6\3-------------------------------3/6\3--------------------------|
|-2-3-2-2-----------------------------2-3-2-2-------7h10p7h10...8h11p8h11...-|
|-0-1-0-0-1/4\1-5h8p5h8...-4h7p4h7...-0-1-0-0-1/4\1--------------------------|    t      
                            t
    .                                   .
both above x2

Chorus
|-----------------------------------------------|
|-----------------------------------------------|
|-----------------------------------------------|
|---9-8-9-8-5-8---9-8-9-11-12---9-8-9-8-5-8-----|
|---7-6-7-6-3-6---7-6-7--9-10---7-6-7-6-3-6-6-7-|
|-0-------------0-------------0-------------7-8-| x2
    t t t t t t   t t t t  t    t t t t t t t t

End
|-----|
|-----|
|-----|
|-----|
|-14\-|
|-12\-|
Related for Roadrunner United - Dawn Of A Golden Age tab
Advertisement will be closed in 10 seconds