Song name
# A B C D E F G H I J K L M N O P Q R S T U V W X Y Z

Misc - Zach Keller - Lost In The Wind tab

Help us improve GuitareTab! Take a short survey!
This is a song i wrote about a girl. still don't have lyrics though.

Intro

E--------------------}
B--------------------}
G--------------------}
D------2--1--2--1----}    x2
A-----2--2--0--0-----}
E----0--3--2--1------}


then just those notes in chord form....

Beef.

E--0-0-----0-0-----0-0-----0-0-
B--0-0-----0-0-----0-0-----0-0-
G--0-0-----0-0-----0-0-----0-0-
D--2-2-----0-0-----2-2-----1-1-
A--2-2-----2-2-----0-0-----0-0-
E--0-0-----3-3-----2-2-----1-1-


then the intro again.
Related for Zach Keller - Lost In The Wind tab