Song name
# A B C D E F G H I J K L M N O P Q R S T U V W X Y Z

Misc - Circus Music tab

-------------------------------------------------------------------------------
			     circus music
-------------------------------------------------------------------------------
Tabbed by:jacko
Email:s_jackson_1988@hotmail.co.uk

Tuning:standard

guitar 1
e|---------------------------------------------------------------------------|
B|---------------------------------------------------------------------------|
G|---------------------------------------------------------------------------|
D|-0---0---0-----------------------------------------------------------------|
A|---0---0---0-0-2-3-4-------------------------------------------------------|
E|---------------------------------------------------------------------------|

after 2 time of guitar 1 guitar plays
e|------------------------------------------------------------------------------|
B|------------------------------------------------------------------------------|
G|-10-9-8-7-9-8-7-6-5-6---5-5-6-5---5-5-6-5---6-6-7-7-8-8-9-9-10-10-11-11-12-12-|
D|----------------------5--------5----------------------------------------------|
A|------------------------------------------------------------------------------|
E|------------------------------------------------------------------------------|
it can be played on bass too guitar 1 sounds good on bass :P

and thats it :)
Tap to rate this tab
 
# A B C D E F G H I J K L M N O P Q R S T U V W X Y Z