Song name
# A B C D E F G H I J K L M N O P Q R S T U V W X Y Z

Misc - Mighty Boosh - I Did A Shit On Your Mum tab

Simple tune, and it's my first, hope it's accurate


e|----------------|
B|----------------|
G|-----------3----|
D|5---5-5----3--3-|
A|5---5-5----1--3-|
E|3---3-3-------1-|

That's repeated a bit. Then on "And she really liked it" is this:

e|---------------|
B|---------------|
G|---------------|
D|5--------------|
A|5--------------|
E|3--------------| Just play that and stop the note for the full bar. Then continue the riff
Tap to rate this tab
# A B C D E F G H I J K L M N O P Q R S T U V W X Y Z