Song name
# A B C D E F G H I J K L M N O P Q R S T U V W X Y Z

Misc - E Minor Pentatonic Scale Practise tab

this is a good way to practise the E minor scale using it in a different order:

   ------------------------------------------------------|
   ------------------------------------------------------|
   -----------------------------------------12----12-14--|
   -----------------------12----12-14--12-14----14-------|
   -----12----12-14--12-14----14-------------------------|
   12-15----15-------------------------------------------|

   -----------------------12----12-15--12----------------|
   -----12----12-15--12-15----15-------------------------|
   12-14----14-------------------------------------------|
   ------------------------------------------------------|
   ------------------------------------------------------|
   ------------------------------------------------------|

just something to get you used to where the notes on the E minor scale are.

thanks:

Tabbed by- Jason :) (:
Tap to rate this tab
# A B C D E F G H I J K L M N O P Q R S T U V W X Y Z