Song name
# A B C D E F G H I J K L M N O P Q R S T U V W X Y Z

Misc - Kids Songs - Puff The Magic Dragon tab

		Puff The Magic Dragon




Tabbed by: T3NNu
Email: t3nnu@luukku.com

e|----------------------------------------------------------2----------------|
B|----5--5-5-5-4------2--5-5--------------------5-5-5-2-4-5------------------|
G|----------------4----------4----4-2-2-4-2-1-2------------------------------|
D|---------------------------------------------------------------------------|
A|---------------------------------------------------------------------------|
E|---------------------------------------------------------------------------|

e|-----------------------------------------------------2---------------------|
B|----5--5-5-5--4---2-2-5-5-------------------5-5-2-5-2----5-----------------|
G|----------------4---------4---4-2-2-4-2-1-2--------------------------------|
D|---------------------------------------------------------------------------|
A|---------------------------------------------------------------------------|
E|---------------------------------------------------------------------------|
Tap to rate this tab
# A B C D E F G H I J K L M N O P Q R S T U V W X Y Z